Brad Paisley - Wrapped Around Text Guitar Tab

Learn the song with the online tablature player
Brad Paisley
Mud On the Tires
Wrapped Around
by:Firestorm

Intro

A---4h2p0---------------------------------------|
E-4\5-5-5--4\5-5-5--4h2p0-0-0-------------------|
repeat 4 times, last time end on E-0h2----------|

 A          D        E             A                            D
Everyday I clock out, head straight to her house. We cuttle up, on the couch.
 E
But it always ends the same old way, I´m driving home and it´s incredibly late

Something´s gotta change!

Chorus
                D                                   A
Cause I´ve been wrapped around her finger since the first time we went out.
 E                          D           A
Everyday, every night she´s all I think about
 D                          A                   D
I need that girl beside me, when the lights go out.
                            A           E                 A
I think it´s time to put a ring on her finger I´m wrapped around.

 A               D                E          A
Went to the bank, took out a loan then bought the perfect stone.
                  D             E
Called up her dad on the phone...I´m taking him to dinner sunday night,

I´ve never been so nervous in my life, I wanna do this right.

Chorus
                D                                   A
Cause I´ve been wrapped around her finger since the first time we went out.
 E                          D           A
Everyday, every night she´s all I think about
 D                          A                   D
I need that girl beside me, when the lights go out.
                            A           E                 A
I think it´s time to put a ring on her finger I´m wrapped around.

Solo

---------------------------------------------------------------------|
---------------------------------5----5------------------------------|
-2----2-1---------1-------------6-6--6----------------7--6-----------|
----------4-4-------2-0-2------7----7--7---------4--7------7--4------|
----4-----------4---------4----------------7-7--------------------7--|
---------------------------------------------------------------------|

-5---------------------------------------------------------|
---9-5-----------------------------------------------------|
-------7-6-------------------------------------------------|
-----------7-6---------------------------------------------|then up and down in a pretty likwise pattern
---------------7-5-------------------only very, very fast--|
-----------------------------------------------------------|

 E
Yes sir, I love her very much. I know it´s only been seven months,

but that´s how long to know.
                -------------2-------------|

Chorus
------------4-------|
           muted E/A/D:    -0-0-2-2-5-5----|
                                        D           A
Cause I´ve been wrapped around her finger since the first time we went out.
 E                          D           A
Everyday, every night she´s all I think about
 D                          A                   D
I need that girl beside me, when the lights go out.
                            A           E                 A
I think it´s time to put a ring on her finger I´m wrapped around,
                            A           E                 A
I think it´s time to put a ring on her finger I´m wrapped around

End with intro and fade out...