Bravery - Ring Song Text Guitar Tab

Learn the song with the online tablature player
THE RING SONG
The Bravery

Taken from the Island album The Bravery

Rhy. Fig. 1
|-------------------------------------------------- 6--6--6--6--6--6--|
|-6--6--6--6--6--6--6--6--7--7--7--7--7--7--7--7--7--7--7--7--7--7----|
|-6--6--6--6--6--6--6--6--6--6--6--6--6--6--6--6--6--6--6--6--6--6----|
|-6--6--6--6--6--6--6--6--6--6--6--6--6--6--6--6----------------------|
|---------------------------------------------------------------------|
|---------------------------------------------------------------------|

|-6--6------------------------------------|
|-7--7/-14--14--14--14--14--14--14--14----|
|-6--6/-11--11--11--11--11--11--11--11----|
|-------11--11--11--11--11--11--11--11----|
|-----------------------------------------|
|-----------------------------------------|

Lead Break:
|-----------------------------------------------------------------|
|-9--6--9--6-----6-----6--9--6--9--6-----6-----6--9--6--9-----6---|
|-------------8-----8------------------8-----8--------------8-----|
|-----------------------------------------------------------------|
|-----------------------------------------------------------------|
|-----------------------------------------------------------------|

|--------------------------------- REPEAT- -------------------------|
|----------9--6--9-----6---------- WHOLE- --------------------------|
|-6--8--------------8-----6--8---- THING- -6--6--6--6--6--6--6--6---|
|-------6-----------------------6- AGAIN,- -------------------------|
|--------------------------------- -THEN-  -------------------------|
|----------------------------------------- -------------------------|

|-------------------------------|
|-------------------------------|
|-6--6--6--6--6--6--6--6---\----|
|-------------------------------|
|-------------------------------|
|-------------------------------|