Brenda Lee - Rockin Around The Christmas Tree Bass Text Guitar Tab

Learn the song with the online tablature player
               ROCKIN' AROUND THE CHRISTMAS TREE - Brenda Lee

INTRO
|------------|--------|
|6--6--63-3-3|--------|
|------------|4-4-643-|
|------------|-------6|

VERSE 1
|-----------|------------|------------|---------------|
|6----56-56-|---78----78-|---78----78-|---78-56-----5-|
|--56-------|56----56----|56----56----|56-------6-8---|
|-----------|------------|------------|---------------|

VERSE 2
|-----------|------------|------------|---------------|
|6----56-56-|---78----78-|---78----78-|---78-56-4-3---|
|--56-------|56----56----|56----56----|56-----------6-|
|-----------|------------|------------|---------------|

CHORUS 1
|---3----|----5---|---3----|3-------|
|-36-643-|-025-52-|356-6533|--------|
|4------4|3------3|--------|----654-|
|--------|--------|--------|-------6|

VERSE 3
|-----------|------------|------------|----------------|
|6----56-56-|---78----78-|---78----78-|------5-6-----5-|
|--56-------|56----56----|56----56----|56-68-----6-8---|
|-----------|------------|------------|----------------|

SOLO           ss    ss  ss        ss
|----5567|8---8---8|8---8---86|5-------4|5-------|---------|12108--------|
|6689----|--58-8-8-|-8-8-8-8--|-85-6668-|---86---|--------8|-------11108-|
|--------|-6----6--|--6---6---|---6-----|-86--6--|---56810-|-----10-----6|
|--------|---------|----------|---------|------87|689------|-------------|

   ss   ss
|----------|
|5-----5---|
|-86--6-863|
|---86-----|

CHORUS 2
|-----------|--------------|-----------|3-------|
|---6-6-----|----5-5-----5-|3-3---3-33-|--------|
|4-4---4-44-|43-3---3-36---|---3-3-----|----654-|
|-----------|--------------|-----------|-------6|

OUTRO
|-----------|------------|------------|--------|-------------------|--------|
|-----56-56-|---78----78-|---78----78-|-------5|6-6-6--6-6---------|----6---|
|--56-------|56----56----|56----56----|-6-7-8--|-----6----8-8-8--8-|-----68-|
|4----------|------------|------------|--------|---------------8---|9866---4|