Buck-O-Nine - Shes Fat Text Guitar Tab

Learn the song with the online tablature player
Buck-O-Nine
She's Fat

G---------------------------------------------------------------------------------
D---------------------------------------------------------------------------------
A---------------------------------------------------------------------------------
E-----5--5--5--4--3--4--5--5--5--4--3--4--5--5--5--4--3--4--5--5--5---------------

                Verse

G---------------------------------------------------------------------------------
D-------------------------------------6--7--9-----------------6--7--9-------------
A---7--5--4-----------4--5--7--7--------------4--5--7--7--------------------------
E------------5-----5---------------------------5-----------------------5----------

                                                      2X -->  Chorus

G------------------------------------------------------------------------
D------------------6--7--9--------------------9--7p6---------------------
A---4--5--7--7-----------------4--5--7--7----------7---------------------
E---------------------------5--------------------------------------------

                                                       Chorus

G-----------------------------------------------------------------------
D------------------------------------------------------------4--5--4----
A---------------------------------------------------------5-------------
E-----------------------------------------------------------------------

G-----------------------------------------------------------------------
D------------------4--5--4-----9--7p6--------4--5--4--------------------
A------4--5--4--5-----------7----------7--5--------------4--5--4--------
E---5-------------------------------------------------5-----------------

                   --> verse 2X

G-----------------------------------------------------------------------
D------4--5--4----------------------------------------------------------
A---5-----------7-------------------------------------------------------
E-----------------------------------------------------------------------

                                  Ending

G------------------------------------------------------------------------
D------------------------------------------------------------------------
A------------------------------------------------------------------------
E------------------------------------5--5--5--5\1--7---------------------

slide to 17th fret