Buono - Blue Sky Blue Chords

 
         
         
         
         
         
1
3
4
2
1
1
5 fr
         
         
         
         
         
X
4
3
1
2
1
3 fr
         
         
         
         
         
X
X
1
2
4
3
         
         
         
         
         
X
X
3
2
1
1
8 fr
         
         
         
         
         
X
1
3
3
3
1
10 fr
         
         
         
         
         
4
3
1
1
1
X

10 fr
         
         
         
         
         
3
2
1
1
1
4
3 fr
         
         
         
         
         
1
3
4
1
1
1
5 fr
         
         
         
         
         
X
X
1
3
4
2
3 fr
         
         
         
         
         
X
X
3
1
1
1
         
         
         
         
         
1
X
2
3
4
         
         
         
         
         
3
1
X
X
X
         
         
         
         
         
2
1
3
4

7 fr
         
         
         
         
         
X
4
3
1
2
X
10 fr
         
         
         
         
         
X
1
3
4
2
1
         
         
         
         
         
X
X
2
3
1
5 fr
         
         
         
         
         
X
1
3
4
2
1
10 fr
         
         
         
         
         
X
X
1
1
1
5 fr
         
         
         
         
         
X
X
3
2
1
2 fr
         
         
         
         
         
X
4
3
1
2
X
10 fr
         
         
         
         
         
1
3
4
1
1
1

12 fr
         
         
         
         
         
X
X
1
3
4
2
         
         
         
         
         
X
3
2
1
3 fr
         
         
         
         
         
X
1
2
3
4
1
8 fr
         
         
         
         
         
1
3
4
2
1
1
3 fr
         
         
         
         
         
X
1
X
3
4
1
5 fr
         
         
         
         
         
3
2
1
1
1
4
10 fr
         
         
         
         
         
X
X
1
3
4
3

12 fr
         
         
         
         
         
X
4
3
1
2
1
3 fr
         
         
         
         
         
X

B

variations
         
         
         
         
         
X
1
2
3
4
1
6 fr
         
         
         
         
         
1
3
4
2
1
1
         
         
         
         
         
X
1
4
4
4
X
         
         
         
         
         
X
1
X
3
4
1
3 fr
         
         
         
         
         
3
2
1
1
1
4
8 fr
         
         
         
         
         
X
X
1
3
4
3

10 fr
         
         
         
         
         
X
4
3
1
2
1
         
         
         
         
         
X
2
3
1
5 fr
         
         
         
         
         
1
3
4
1
1
1
5 fr
         
         
         
         
         
X
X
1
1
1
8 fr
         
         
         
         
         
X
3
2
4
1
2 fr
         
         
         
         
         
X
1
4
4
4
7 fr
         
         
         
         
         
X
1
3
4
2

9 fr
         
         
         
         
         
X
4
3
1
2
X
12 fr
         
         
         
         
         
X
1
3
4
2
1
5 fr
         
         
         
         
         
X

G

variations
4 fr
         
         
         
         
         
1
3
4
2
1
1
4 fr
         
         
         
         
         
X
X
3
2
1
1
6 fr
         
         
         
         
         
X
X
1
2
4
3
         
         
         
         
         
3
2
1
1
1
4
8 fr
         
         
         
         
         
X
4
3
1
2
1
11 fr
         
         
         
         
         
X
1
2
3
4
X

11 fr
         
         
         
         
         
X
1
3
3
3
1
No chord
    
Standard guitar tuning:
E
A
D
G
B
E
No capo
------------------------|
-10hb11r10-8----8-10----|
-------------10------10-|
------------------------|
------------------------|
------------------------|
------------|------------|--------------|-----------|
-8-----8----|-8-----8----|-10-----10----|-8-----8---|
---10----10-|---10----10-|----10-----10-|---9-----9-|
------------|------------|--------------|-----------|
------------|------------|--------------|-----------|
------------|------------|--------------|-----------|
FLight Miagereba onaGmji sora ga DmDelight Koko ni mo aCrunda ne
---5----5---5/13--12----|---5----5--5/13--12---------------------|
-6----6--------------13-|-6----6--------------13-13vvvvvvvvv\\\\-|
------------------------|----------------------------------------|
------------------------|----------------------------------------|
------------------------|----------------------------------------|
------------------------|----------------------------------------| x2
Kokoro no Dmoku nFi KiritoraBreta CBlue

Dm F C

---5---5----5---5-|----6---6---6---6-|---5---5----5---5-|---3---3---|
-6---6---66---6---|-66---6---66--6---|-6---6---66---6---|-55--5---5-|
------------------|------------------|------------------|-----------|
------------------|------------------|------------------|-----------|
------------------|------------------|------------------|-----------|
------------------|------------------|------------------|-----------|
FWhy Jiyuu to senaka aGmwase ni DmAway Kodoku wa aCru tte *Bridge* Fukai Dmyami no Amnaka de jiBtto me wo koraseba
--------------------------|
--------------------------|
-101010-\9-\7-\5-5vvv-----|
--------------------------|
--------------------------|
--------------------------|
Soko Dmni aru hikarAmi wa yagate Gmazayaka ni C C C
---5----5---5/13--12----|---5----5--5/13--12---------------------|
-6----6--------------13-|-6----6--------------13-13vvvvvvvvv\\\\-|
------------------------|----------------------------------------|
------------------------|----------------------------------------|
------------------------|----------------------------------------|
------------------------|----------------------------------------| x2
Kono ooki Dmna soFra Kimi mo miBteru CBlue
----------------------|
----------13----------|
----14-15----15-14----|
-15----------------15-|
----------------------|
----------------------|

F

-----------------------------|------14-14-16-16-19-19\-|
----------13-14-16-13--------|--/16--------------------|
-15-15-15-------------13-----|-------------------------|
-----------------------------|-------------------------|
-----------------------------|-------------------------|
-----------------------------|-------------------------|

B G F

---|-11-----|----|-13-----|---|-13-----|-/15-----------|
---|---13---|----|---15---|---|---15---|------17-------|
-13|-----13-|-/15|-----15-|-15|-----15-|----------17vv-|
---|--------|----|--------|---|--------|---------------|
---|---x5---|----|----x5--|---|----x5--|---------------|
---|--------|----|--------|---|--------|---------------|

G B B C

-------8---8/13-12----|-------8---8/13-12-----|
----10-------------13-|----10-------------13--|
-10-------------------|-10--------------------|
----------------------|-----------------------|
----------------------|-----------------------|
----------------------|-----------------------|
Kokoro no Dmoku Fni KiritoraBreta CBlue
-13-12-13--15\-|-13-12-13-15\-|-13-12-13-15-17-15-|-17b18r17\15-13-15--|
---------------|--------------|-------------------|--------------------|
---------------|--------------|-------------------|--------------------|
---------------|--------------|-------------------|--------------------|
---------------|--------------|-------------------|--------------------|
---------------|--------------|-------------------|--------------------|

Dm F B C

-17-15--13\\-|-17-15-13\\-|-17-15-13-12-13vvv-|-10-12-10h12p10-8vv-8\--|
-------------|------------|-------------------|------------------------|
-------------|------------|-------------------|------------------------|
-------------|------------|-------------------|------------------------|
-------------|------------|-------------------|------------------------|
-------------|------------|-------------------|------------------------|

Dm F B C

-555-5-5-|-/8-10-8--|-12--13-15-171717--|-/20--20-20b22-20-20b22--|
---------|----------|-------------------|-------------------------|
---------|----------|-------------------|-------------------------|
---------|----------|-------------------|-------------------------|
---------|----------|-------------------|-------------------------|
---------|----------|-------------------|-------------------------|

Dm F B C

-17h20b22-17h20b22-17h20b22-|-rpt-|-20b25--20-17-15-17-|-15-17vvv-1517-1517-|
----------------------------|-----|--------------------|--------------------|
----------------------------|-----|--------------------|--------------------|
----------------------------|-----|--------------------|--------------------|
----------------------------|-----|--------------------|--------------------|
----------------------------|-----|--------------------|--------------------|

Dm F B C

-15b17-15b17-15b17-|-rpt------20tr-22tr-|-22btr-20-17-|-18p17--15h17---|
-------------------|--------------------|-------------|----------------|
-------------------|--------------------|-------------|----------------|
-------------------|--------------------|-------------|----------------|
-------------------|--------------------|-------------|----------------|
-------------------|--------------------|-------------|----------------|

Dm F B C

-15p13-15-13--------|
--------------------|
--------------------|
--------------------|
--------------------|
--------------------|

Dm


All Content on this page is the property of the copyright owner of the original composition.