Busted - Fall At Your Feet Text Guitar Tab

Learn the song with the online tablature player
Intro

e:---------------------------------------------------------------------|
B:---------------------------------------------------------------------|
G:---------------------------------------------------------------------|  (Repeat 4 Times)
D:10-10--12--8------10-10--5--8----------------------------------------|  (On the 4th time
A:10-10--12--8------10-10--5--8----------------------------------------|  don't play the
E:8--8---10--6------8--8---3--6----------------------------------------|  last chord)

Verse

E:------------|
B:------------|
G:------------|
D:------------|
A:----------3-|  (as many times as required over bass playing)
e:-------3----|

Chorus

e:------------------------------------------------------------------------------------|
B:------------------------------------------------------------------------------------|
G:8-8-8-8-8-8-8-8---------------------------------------------------------------------| (repeat 3 times)
D:8-8-8-8-8-8-8-8---8-8-8-8-8-8-8-8---10-10-10-10-10-10-10-10---6-6-6-6-6-6-6-6-------|
A:6-6-6-6-6-6-6-6---8-8-8-8-8-8-8-8---10-10-10-10-10-10-10-10---6-6-6-6-6-6-6-6-------|
E:------------------6-6-6-6-6-6-6-6---8--8--8--8--8--8--8--8----4-4-4-4-4-4-4-4-------|

Bridge

e:------------------------------------------------------------------------------------|
B:------------------------------------------------------------------------------------|
G:8-8-8-8-8-8-8-8---------------------------------------------------------------------| (same as chorus)
D:8-8-8-8-8-8-8-8---8-8-8-8-8-8-8-8---10-10-10-10-10-10-10-10---6-6-6-6-6-6-6-6-------|
A:6-6-6-6-6-6-6-6---8-8-8-8-8-8-8-8---10-10-10-10-10-10-10-10---6-6-6-6-6-6-6-6-------|
E:------------------6-6-6-6-6-6-6-6---8--8--8--8--8--8--8--8----4-4-4-4-4-4-4-4-------|

Outro

e:------------------------------------------------------------------------------------|
B:------------------------------------------------------------------------------------|
G:8-8-8-8-8-8-8-8---------------------------------------------------------------------| (same as chorus)
D:8-8-8-8-8-8-8-8---8-8-8-8-8-8-8-8---10-10-10-10-10-10-10-10---6-6-6-6-6-6-6-6-------|
A:6-6-6-6-6-6-6-6---8-8-8-8-8-8-8-8---10-10-10-10-10-10-10-10---6-6-6-6-6-6-6-6-------|
E:------------------6-6-6-6-6-6-6-6---8--8--8--8--8--8--8--8----4-4-4-4-4-4-4-4-------|

*Order*

Intro
Verse
chorus
verse
chorus
chorus
bridge
outro