Cady Groves - The Life Of A Pirate Chords

 
No chord
    
Standard guitar tuning:
E
A
D
G
B
E
Capo on 3 fret

Verse

e|----------------------------------------------------------------------------|
B|------------------1--------------------------1------------------------------|
G|---------0-------------0-----------0-----------------0----------------------|
D|------------2------------------------2--------------------------------------|
A|---3-----------3----3----3----3----------3-------3-----3--------------------|
E|----------------------------------------------------------------------------|
e|------------------------------------------------------------------------------|
B|-----------------------1---------------------------------1--------------------|
G|--------0---------------------0---------0------------------------0------------|
D|-------------0--------------------------------0-------------------------------|
A|---2-------------2-------2------2---2-------------2----------2------2---------|
E|------------------------------------------------------------------------------|(x5)

Chorus

e|----0-0-0-0-----0-0-0-0----0-0-0-0----0-0-0-0------|
B|---1-1-1-1-----1-1-1-1----1-1-1-1----0-0-0-0-------|
G|---0-0-0-0-----2-2-2-2----0-0-0-0----0-0-0-0-------|
D|---2-2-2-2-----3-3-3-3----2-2-2-2----0-0-0-0-------|
A|---3-3-3-3-----0-0-0-0----3-3-3-3----2-2-2-2-------|
E|---0-0-0-0-----0-0-0-0-----0-0-0-0----3-3-3-3------|(x3)

Verse

e|----------------------------------------------------------------------------|
B|------------------1--------------------------1------------------------------|
G|---------0-------------0-----------0-----------------0----------------------|
D|------------2------------------------2--------------------------------------|
A|---3-----------3----3----3----3----------3-------3-----3--------------------|
E|----------------------------------------------------------------------------|
e|------------------------------------------------------------------------------|
B|-----------------------1---------------------------------1--------------------|
G|--------0---------------------0---------0------------------------0------------|
D|-------------0--------------------------------0-------------------------------|
A|---2-------------2-------2------2---2-------------2----------2------2---------|
E|------------------------------------------------------------------------------|(x6)

Chorus

e|----0-0-0-0-----0-0-0-0----0-0-0-0----0-0-0-0------|
B|---1-1-1-1-----1-1-1-1----1-1-1-1----0-0-0-0-------|
G|---0-0-0-0-----2-2-2-2----0-0-0-0----0-0-0-0-------|
D|---2-2-2-2-----3-3-3-3----2-2-2-2----0-0-0-0-------|
A|---3-3-3-3-----0-0-0-0----3-3-3-3----2-2-2-2-------|
E|---0-0-0-0-----0-0-0-0-----0-0-0-0----3-3-3-3------|(x3)

Bridge

 e|---0--0--0--0----0--0--0--0----0--0--0--0----0--0--0--0----------------|
B|---1--1--1--1----1--1--1--1----1--1--1--1----0--0--0--0-----------------|
G|---0--0--0--0----2--2--2--2----2--2--2--2----0--0--0--0-----------------|
D|---2--2--2--2----2--2--2--2----2--2--2--2----2--2--2--2-----------------|
A|---3--3--3--3----0--0--0--0----1--1--1--1----2--2--2--2-----------------|
E|---0--0--0--0----0--0--0--0----0--0--0--0----0--0--0--0-----------------|(x2)

Verse

e|----------------------------------------------------------------------------|
B|------------------1--------------------------1------------------------------|
G|---------0-------------0-----------0-----------------0----------------------|
D|------------2------------------------2--------------------------------------|
A|---3-----------3----3----3----3----------3-------3-----3--------------------|
E|----------------------------------------------------------------------------|
e|------------------------------------------------------------------------------|
B|-----------------------1---------------------------------1--------------------|
G|--------0---------------------0---------0------------------------0------------|
D|-------------0--------------------------------0-------------------------------|
A|---2-------------2-------2------2---2-------------2----------2------2---------|
E|------------------------------------------------------------------------------|(x3)
ENDING:
e|------0-------|
B|-----0--------|
G|-----0--------|
D|-----2--------|
A|-----3--------|
E|-----0--------|

All Content on this page is the property of the copyright owner of the original composition.