Caesars - From The Bughouse Text Guitar Tab

Learn song with the online tabulature player
-------------------------------------------------------------------------------
                             From The Bughouse - Caesars
-------------------------------------------------------------------------------
Tabbed by: Paul Sharapov
Email:s7carlover@yahoo.com

Tuning:Standard

e|-8-8-11-11--8--------8-8-----------------------------8-8-11-11---15-16--16-|
B|--------------11-9-------11-9--11-8-----9-8-----------------------------18-|
G|------------------------------------8--------10----------------------------|
D|---------------------------------------------------------------------------|
A|---------------------------------------------------------------------------|
E|---------------------------------------------------------------------------|

e|-8-8-----------------------|
B|-----11-9--11-8----9-8-----|
G|----------------8------10--|
D|---------------------------|
A|---------------------------|
E|---------------------------|


===============================================================================