Cairokee - Ethbat Makanak Chords

 
         
         
         
         
         
X
2
3
1
5 fr
         
         
         
         
         
1
3
4
1
1
1
5 fr
         
         
         
         
         
X
X
1
1
1
8 fr
         
         
         
         
         
X
3
2
4
1
2 fr
         
         
         
         
         
X
1
4
4
4
7 fr
         
         
         
         
         
X
1
3
4
2

9 fr
         
         
         
         
         
X
4
3
1
2
X
12 fr
         
         
         
         
         
X
1
3
4
2
1
5 fr
         
         
         
         
         
X
         
         
         
         
         
2
3
3 fr
         
         
         
         
         
X
X
2
4
1
7 fr
         
         
         
         
         
X
1
3
4
2
1
2 fr
         
         
         
         
         
X
X
1
3
4
2
3 fr
         
         
         
         
         
X
3
2
4
1
4 fr
         
         
         
         
         
X
4
3
1
2
X

12 fr
         
         
         
         
         
1
3
4
1
1
1
         
         
         
         
         
X
3
2
1
3 fr
         
         
         
         
         
X
1
2
3
4
1
8 fr
         
         
         
         
         
1
3
4
2
1
1
3 fr
         
         
         
         
         
X
1
X
3
4
1
5 fr
         
         
         
         
         
3
2
1
1
1
4
10 fr
         
         
         
         
         
X
X
1
3
4
3

12 fr
         
         
         
         
         
X
4
3
1
2
1
3 fr
         
         
         
         
         
X
7 fr
         
         
         
         
         
1
3
4
2
1
1
         
         
         
         
         
X
2
1
X
3
         
         
         
         
         
X
1
4
4
4
X
         
         
         
         
         
X
1
3
3
3
1
4 fr
         
         
         
         
         
4
3
1
1
1
X
4 fr
         
         
         
         
         
3
2
1
1
1
4

9 fr
         
         
         
         
         
X
X
1
3
4
3
11 fr
         
         
         
         
         
X
4
3
1
2
1
No chord
    
Standard guitar tuning:
E
A
D
G
B
E
No capo

Verse

Chords used :

Am Em B11

e|---0------0------0-------------| B|---1------0------0-------------| G|---2------0------2-------------| D|---2------2------1-------------| A|---0------2------2-------------| E|----------0--------------------|
Picking Pattern (Can be applied for all the chords) :
   Am                       Em
e|-----------0-----------|-----------0-----------|
B|------1----------------|------0----------------|
G|-----2---2-------------|-----0---0-------------|
D|-----------------------|-----------------------|
A|--0--------------------|-----------------------|
E|-----------------------|--0--------------------|
    B11                     Em
e|-----------0-----------|-----------0-----------|
B|------0----------------|------0----------------|
G|-----2---2-------------|-----0---0-------------|
D|-----------------------|-----------------------|
A|--2--------------------|-----------------------|
E|-----------------------|--0--------------------|

Am Em B11

.Em. Ethbat Makanak ... Hena 3enwanak .. Da el 5oof by5af mennak .. We damerak 3omroh ma 5anak .. Repeat until Chorus..

Chorus

Chords used :

C Em B11

e|---0------0------0-------------| B|---1------0------0-------------| G|---0------0------2-------------| D|---2------2------1-------------| A|---3------2------2-------------| E|----------0--------------------|
C.. Kalamak mabytfeEmhemsh .C. E7sasak mabyetwEmesefsh .. B11.. Enta bet2ol karamaEm .. w homa yrodo bmahana .. B11.. Enta bet2ol el 3adl Em.. bey2olo 3annak nadl ..

Solo

(Note: the solo is in the key of E minor, and on that B11 chord you hit the note D# of
the harmonic minor scale)
e|---------------------7--0--|--0--0--0--0/10--10--8--7---|
B|--------8-----10-----------|----------------------------|
G|--9--9-----9------9--------|----------------------------|
D|---------------------------|----------------------------|
A|---------------------------|----------------------------|
E|---------------------------|----------------------------|
e|--7/11--11--11--11--11--11--11/-|-/12--12--12--12--12--12--12--12\--|
B|----12--12--12--12--12--12--12/-|-/12--12--12--12--12--12--12--12\--|
G|--------------------------------|-----------------------------------|
D|--------------------------------|-----------------------------------|
A|--------------------------------|-----------------------------------|
E|--------------------------------|-----------------------------------|
e|--8--8/15--15--15--15--15--15\--|--7--7/15--15--15--15--15--15--|
B|--------------------------------|-------------------------------|
G|--------------------------------|-------------------------------|
D|--------------------------------|-------------------------------|
A|--------------------------------|-------------------------------|
E|--------------------------------|-------------------------------|
e|--15\11-11--11--11--11--11--11--11--|--11/12--12--12--12--12--12--12--|
B|------------------------------------|---------------------------------|
G|------------------------------------|---------------------------------|
D|------------------------------------|---------------------------------|
A|------------------------------------|---------------------------------|
E|------------------------------------|---------------------------------|
| / slide up | \ slide down | B hammer-on | p pull-off | ~ vibrato | + harmonic | x Mute note | B Bend | pb Pre-bend | br Bend release | pbr Pre-bend release | brb Bend release bend

All Content on this page is the property of the copyright owner of the original composition.