Califone - Burned By The Christians Chords

 
         
         
         
         
         
X
X
1
3
2
2 fr
         
         
         
         
         
X
4
3
1
2
1
5 fr
         
         
         
         
         
X
1
2
3
4
1
5 fr
         
         
         
         
         
X
1
4
4
4
X
7 fr
         
         
         
         
         
4
3
1
1
1
X
7 fr
         
         
         
         
         
3
2
1
1
1
4

10 fr
         
         
         
         
         
1
3
4
2
1
1
12 fr
         
         
         
         
         
X
X
1
3
4
3
5 fr
         
         
         
         
         
X
X
         
         
         
         
         
3
2
4
3 fr
         
         
         
         
         
1
3
4
2
1
1
         
         
         
         
         
2
1
3
4
3 fr
         
         
         
         
         
X
X
3
2
1
1
5 fr
         
         
         
         
         
X
X
1
3
4
3
7 fr
         
         
         
         
         
X
4
3
1
2
1

10 fr
         
         
         
         
         
X
1
2
3
4
X
10 fr
         
         
         
         
         
X
1
3
3
3
1
12 fr
         
         
         
         
         
3
2
1
1
1
4
No chord
    
Standard guitar tuning:
E
A
D
G
B
E
No capo

Intro

---2-2------2-2-------------------|
         ----------------------------------|
         --0-0------0-0--------------------|
         ------0~-------0~---2/4/2~-2-4-0~-|
         ----------------------------------|
         ----------------------------------|
DWire, in the teeth, Gwhile we warm twine, while we Dbreath. DScared, notes are blessed, Gwhere you been? We lose Ddays.

Chorus

Broke hearts are whole. Burned by the Christians recline.
   --2~------2~--------------   --2~------2~----------------------|
   --------------------------   ----------------------------------|
   0------0------------------   0------0--------------------------|
   -----------------------0~-   --------------------------0~------|
   --------------------------   ----------------------------------|
   --------------------------   ----------------------------------|
    Held under your toung like a tiny stone.    Paid and gone.
   --2~------2~-------------------------------  ---------------|
   -------------------------------------------  ---------------|
   0------0-----------------------------------  ---------------|
   -------------------------2/4/2~------------  2-4-0~---------|
   -------------------------------------------  ---------------|
   -------------------------------------------  ---------------|

All Content on this page is the property of the copyright owner of the original composition.