Callalily - Stars Text Guitar Tab

Learn song with the online tabulature player
Mga Bro mas accurate toh compare sa una qng tab. cnama q ung riffs and adlib. Enjoy the 
Pakirate naman oh!!!

Intro:

Guitar 1 ( play 6 times)
e---------------------------------------------|
B------------15-------------------------------|
G-----12-12-----12--14-14--12-14/16-14-12-----|
D---------------------------------------------|
A---------------------------------------------|
E---------------------------------------------|

Guitar 2 (after playing the intro twice)
e----0-----0-----0-----0-----|
B----0-----0-----0-----0-----|
G----0-----7-----9-----5-----|
D----5-----7-----9-----5-----|
A----5-----5-----7-----3-----|
E----3-----------------------|

Then hataw nyo ung power chords nalang
Sa pang5th na play ng intro


Verse & Refrain

Guitar 1
e----------------------------|
B----------------------------|
G----------------7-----5-----|
D----2-----5-----7-----5-----|
A----2-----5-----5-----3-----|
E----------------------------|


Guitar 2
Verse Riff
e-------------------------|
B--------------16---------|
G--------12h14------------|
D-------------------------|
A-------------------------|
E-------------------------|

Refrain Riff

e---------------------------------|
B--------------------1616-1616----|
G---12121212h1414p12--------------|
D---------------------------------|
A---------------------------------|
E---------------------------------|
Chorus

Guitar 1
e----3-----3-----3-----3-----|
B----3-----3-----3-----3-----|
G----0-----2-----0-----0-----|
D----0-----0-----2-----2-----|
A----2-----0-----2-----3-----|
E----3-----3-----------------|

e----3-----3-----3----|
B----3-----3-----3----|
G----0-----2-----0----|
D----0-----0-----2----|
A----2-----0-----3----|
E----3-----3----------|

Guitar 2

e----------------------------|
B----------------------------|
G----------7-----9-----5-----|
D----5-----7-----9-----5-----|
A----5-----5-----7-----3-----|
E----3-----------------------|

e----------------------|
B----------------------|
G----------7------5----|
D----5-----7------5----|
A----5-----5------3----|
E----3-----------------|

(After the first chorus play the intro twice)

Adlib (After the 2nd chorus)

e-------------------------------------------|
B-------------------------------------------|
G----------------------------12h14-12-------|
D--------8h9-8--/12--14-12-14--------12-----|
A--9h11-9-----------------------------------|
E-------------------------------------------|

e-----------------------------------------------------|
B-----------------------------------------------------|
G----------------------------------12h14p12--7h9p7----|
D----------10-9----10/12—12h14p12---------------------|
A--10-9---------10------------------------------------|
E-------10--------------------------------------------|

Refrain( bagsak bagsak lng )


e----------------------------|
B----------------------------|
G----9-----2-----7-----5-----|
D----9-----5-----7-----5-----|
A----7-----5-----5-----3-----|
E----------------------------|

Pause pagdating sa D kc drums
e---------------------P----|
B---------------------A----|
G----9-----------7----U----|
D----9-----5-----7----s----|
A----7-----5-----5----E----|
E--------------------------|


Tapos ng drums thrice hatawin

e----------|
B----------|
G----5-----|
D----5-----|
A----3-----|
E----------|

Repeat Chorus thrice because my 2nd chorus tpos ulitin uli ung 1st chorus. Ah basta 
nyo nalang ung kanta para makuha.

Outro
( play thrice)
e---------------------------------------------|
B------------15-------------------------------|
G-----12-12-----12--14-14--12-14/16-14-12-----|
D---------------------------------------------|
A---------------------------------------------|
E---------------------------------------------|

Eto ung pang apat

e------------------------------------------------|
B------------15----------------------------------|
G-----12-12-----12--14-14--12-14/16-14-12--12v---|
D------------------------------------------------|
A------------------------------------------------|
E------------------------------------------------|