Calling - Thank You Text Guitar Tab

Learn song with the online tabulature player
----------------------------------------------------------------------
                             THANK YOU -- The Calling
----------------------------------------------------------------------

By:Chris Schneider

Verse:  
you can figure out the strumming yourself.  if you can't, quit the guitar right now
e|-6-(6)---4-----6-----6------|
B|-7-(6)---4-----6-----7------|
G|-6-(6)---4-----6-----6------|
D|-8-(8)---6-----6-----8------|
A|-6-(6)---6-----8-----6------|
E|-x-(x)---4-----6-----x------|

note:  when you play the [x68676] the second time, play this (strumming is right)
e|--6------6-6--6--6----6--6-------|
B|--7------7-7--6--6----6--6-------|
G|--6------6-6--6--8----8--8-------|
D|--8------8-8--8--8----8--8-------|
A|--6------6-6--6--6----6--6-------|
E|--x------x-x--x--x----x--x-------|



Chorus:  again, figure out the strumming on your own
e|-----------------------------------------|
B|-----------------------------------------|
G|---4---6---11--(13)------4---6---11--10--|
D|---4---6---11--(11)------4---6---11--11--|
A|---2---4---9---(11)------2---4---9---8---|
E|---x---x---x---(x)-------x---x---x---x---|


The intro, bridge, and outro are made up of these same chords. 

If this isn't completely right, its close enough that anyone listening will
think you know what you're doing.  If you find something wrong, good for you. 



======================================================================