Camper Van Beethoven - Take The Skinheads Bowling Text Guitar Tab

Learn the song with the online tablature player
Take The Skinheads Bowling Bass Tab - Camper Van Beethoven

E-mail me with any corrections!! :D

Intro
x4)   ~00:00 --> 00:13

G|---------------------------------------------------------------|
D|---------------------------------------------------------------|
A|-3-33333-------------------------------------------------------|
E|--------1-11111------------------------------------------------|

Verse
x3)  Variation- Pre Chorus (x1)   ~00:14 --> 00:38

G|-----------------------------------||----------------------------------|
D|------------------------3333-33-5--||----------------------------------|
A|-3-33333--------3-33333------------||-3-33333---------3-33333----------|
E|--------1-11111--------------------||---------1-11111---------11111111-|

Chorus
x2) ~00:39 --> 00:51

G|-------------------------------------|
D|-5-55-555--3-33-333------------------|
A|--------------------33--33--33--33---|
E|------------------------1----1--1----|

Verse
x3)  Variation- Prechorus (x1)   ~00:52 -->  01:17

G|------------------------------------||----------------------------------|
D|-------------------------3333-33-5--||----------------------------------|
A|-3-33333---------3-33333------------||-3-33333---------3-33333----------|
E|---------1-11111--------------------||---------1-11111---------11111111-|

Chorus
x2)  01:18 -->  01:31

G|-----------------------------------|
D|-5-55-555--3-33-333----------------|
A|--------------------33--33-33-33---|
E|-----------------------1--1--1-----|

Verse
x3)  Variation- Prechorus (x1)   ~01:32 -->  01:58

G|------------------------------------||----------------------------------|
D|-------------------------3333-33-5--||----------------------------------|
A|-3-33333---------3-33333------------||-3-33333---------3-33333----------|
E|---------1-11111--------------------||---------1-11111---------11111111-|

  Chorus/Outro (x1)  01:59 -->  02:32

G|--------------------------------------------------------------------|
D|-5-55-555--3-33-333----------------5-55-555--3-33-333---------------|
A|--------------------33--33-33-33----------------------33--33-33-33--|
E|-----------------------1--1--1---------------------------1--1--1----|

G|-----------------------------------------------------------------|
D|-5-55-555--3-33-333----------------5-55-555--3-33-33-------------|
A|--------------------33--33-33-33-----------------------33~~--END-|
E|-----------------------1--1--1-----------------------1-----------|

Fantastic song!!  Very easy bassline, fun to play though :)

~~~Alex

| /  slide up
| \  slide down
| h  hammer-on
| p  pull-off
| ~  vibrato
| +  harmonic
| x  Mute note