Casper - Xoxo Text Guitar Tab

Learn the song with the online tablature player
Intro
|----------------|----------------|----------------|----------------|
|----------------|----------------|----------------|----------------|
|-0----0--3------|-0--------------|-0----0--3------|-0--------------|
|-1----------0---|-0----1--3--1---|-1----------0---|-0----1--3--1---|
|-3----------1---|----------------|-3----------1---|----------------|
|----------------|-3----------4---|----------------|-3----------4---|

Verse
|----------------|----------------|----------------|----------------|
|----------------|----------------|----------------|----------------|
|---------0------|---------0---3--|---------3---0--|--------0h1p0---|
|-----1-------1--|-----0----------|-----0----------|----1-----------|
|-3--------------|-1--------------|----------------|----------------|
|----------------|----------------|-3--------------|-4--------------| Repeat