Cass Mccombs - What Isnt Nature Chords

 
No chord
    
Standard guitar tuning:
E
A
D
G
B
E
No capo

Verse

e|--5-5-5-5-5-5-5-5-3-3-3-3-3-3-3-3-3-------------------------|
B|--5-5-5-5-5-5-5-5-3-3-3-3-6-6-6-6-6-------------------------|
G|--5-5-5-5-5-5-5-5-3-3-3-3-3-3-3-3-3-------------------------|
D|-7-7-7-7-7-7-7-7-5-5-5-5-x-x-x-x-x--------------------------|
A|-7-7-7-7-7-7-7-7-5-5-5-5-5-5-5-5-5--------------------------|
E|-5-5-5-5-5-5-5-5-3-3-3-3-3-3-3-3-3--------------------------|

Chorus

                       whaaa aa a aaaat isnt    nature
e|-3--3-3--3-x--x-x--x-x--x-x-x--3-3-3-1-1-1-1-1-1-1-1-1-1-------|
B|-3--3-3--3-5--5-5--5-6--6-6-6--3-3-3-1-1-1-1-1-1-1-1-1-1-------|
G|-3--3-3--3-3--3-3--3-3--3-3-3--3-3-3-2-2-2-2-2-2-2-2-2-2-------|
D|-5--5-5--5-x--x-x--x-x--x-x-x--5-5-5-3-3-3-3-3-3-3-3-3-3-------|
A|-5--5-5--5-5--5-5--5-5--5-5-5--------3-3-3-3-3-3-3-3-3-3-------|
E|-3--3-3--3-3--3-3--3-3--3-3-3--------1-1-1-1-1-1-1-1-1-1-------|

All Content on this page is the property of the copyright owner of the original composition.