Chameleons - Second Skin Text Guitar Tab

Learn the song with the online tablature player
INTRO
======
dave's guitar, chorus/delay effect
be aware that the melody doesnt start in tempo

E||--------------------------------|----------------------------------|--------------------------------|
B||--------------------------------|----------------------------------|------------------------10--10--|
G||--------------------------9--9--|--11--11--11--11--11--11--11--11--|--11--11--9--9--11--11----------|
D||--(9)--(9)--9--9--11--11--------|----------------------------------|--------------------------------|
A||--------------------------------|----------------------------------|--------------------------------|
E||--------------------------------|----------------------------------|--------------------------------|

E||------------------------------|--------------------------|--------------------------|
B||------------------------------|--------------------------|--------------------------|
G||------------------------------|--------------------------|--------------------------|
D||--11--11--11--11--9--9--9--9--|--------------------------|--------------------------|
A||------------------------------|--9--9--9--9--7--7--7--7--|--9--9--9--9--9--9--9--9--|
E||------------------------------|--------------------------|--------------------------|

x2 times

VERSE
=======
"One cold damp evening....."

Reg's guitar, slightly palm muted

E||----------------------------------|----------------------------------|
B||----------12----------12----------|--14----------12------------------|
G||--11--11------11--11------11--11--|------11--11------13--13--14--14--|
D||----------------------------------|----------------------------------| x15
A||----------------------------------|----------------------------------|
E||----------------------------------|----------------------------------|

Dave's guitar

E||--------------------------|--------------------------|--------------------------|
B||--------------------------|--------------------------|--------------------------|
G||--------------------------|--------------------------|--------------------------|
D||--------------------------|--------------7--7--7--7--|--------------------------|
A||--9--9--9--9--9--9--9--9--|--9--9--9--9--------------|--9--9--9--9--9--9--9--9--|
E||--------------------------|--------------------------|--------------------------|

E||--------------------------|--------------------------|--------------------------|
B||--------------------------|--------------------------|--------------------------|
G||--------------------------|--------------------------|--------------------------|
D||--------------9--9--9--9--|--7--7--7--7--7--7--7--7--|--6--6--6--6--6--6--6--6--|
A||--9--9--9--9--------------|--------------------------|--------------------------|
E||--------------------------|--------------------------|--------------------------|

x5 times

"Fantasies are "in" this year....."

E||--------------------------|
B||--------------------------|
G||--------------------------|
D||--------------------------|
A||--9--9--9--9--9--9--9--9--|
E||--------------------------|

CHORUS
=======
Dave plays this

E||--------------------------------|----------------------------------|--------------------------------|
B||--------------------------------|----------------------------------|------------------------10--10--|
G||--------------------------9--9--|--11--11--11--11--11--11--11--11--|--11--11--9--9--11--11----------|
D||--(9)--(9)--9--9--11--11--------|----------------------------------|--------------------------------|
A||--------------------------------|----------------------------------|--------------------------------|
E||--------------------------------|----------------------------------|--------------------------------|

E||------------------------------|----------------------------------|--------------------------|
B||------------------------------|----------------------------------|--------------------------|
G||------------------------------|----------------------------------|--------------------------|
D||--11--11--11--11--9--9--9--9--|----------------------------------|--------------------------|
A||------------------------------|--12--12--12--12--11--11--11--11--|--9--9--9--9--9--9--9--9--|
E||------------------------------|----------------------------------|--------------------------|

BRIDGE
=======
Reg plays this palm muted, until end

E||--------------------------|
B||--------------------------|
G||--------------------------|
D||--9--9--9--9--9--9--9--9--| x a lot
A||--7--7--7--7--7--7--7--7--|
E||--------------------------|

END1:
=====
"I realise a miracle is due......"

Dave's guitar, chorus/delay

E||-------------------------|--------------------------|
B||-------------------------|--------------------------|
G||--------9-----11----9----|-----9-----11----11--9----|
D||--9--9-----9-------------|--9-----9-----------------| x16
A||-------------------------|--------------------------|
E||-------------------------|--------------------------|

END2:
=====
"It's like you fail to make the connection...."
Dave's guitar

E||-----------------------------|-----------------------------|
B||-----------------------------|-----------------------------|
G||-----------------------------|-----------------------------|
D||----------9--9--11--11--9----|------11------11----11--9----|
A||--11--11---------------------|--11------11-----------------|
E||-----------------------------|-----------------------------|

E||-----------------------------|------------------------|
B||-----------------------------|------------------------|
G||-----------------------------|--9---9---8---8---------|
D||----------9--9--11--11--9----|------------------11----|
A||--11--11---------------------|------------------------|
E||-----------------------------|------------------------|

x9 times