Charlie Hall - Mystery Text Guitar Tab

Learn song with the online tabulature player
E|--0--0--0--0--0--0--0--0--0--0--0--0--0--0--0--0--0--0--0--0--0--0--0----|
B|-------------------------------------------------------------------------|
G|-------------------------------------------------------------------------|
D|-------------------------------------------------------------------------|
A|0--0--0--0--0--0--0--0--9--9--9--9--9--9--9--9--4--4--4--4--4--4--4--4---|
E|-------------------------------------------------------------------------|

E|--0--0--0--0--0--0--0--0-------------------------------------------------|
B|-------------------------------------------------------------------------|
G|-------------------------------------------------------------------------|
D|-------------------------------------------------------------------------|
A|5--5--5--5--5--5--5--5---------------------------------------------------|
E|-------------------------------------------------------------------------|