Chase And Status - Time Text Guitar Tab

Learn song with the online tabulature player
-------------------------------------------------------------------------------
                             TIME ( MATTIX & FUTILE REMIX ) - Chase & Status
-------------------------------------------------------------------------------
Tabbed by: Sik666
E-mail: throughthefireandtheflames@hotmail.fr

Tuning: CGCF

Why this tuning? I don't know i decided to tab this song right now and my bass was 
tuned in drop C so i did my tab like that.

[00:21]Play this 2 times
F|-4-----0-----------0-|
C|-------------2-------|
G|---------------------|
C|---------------------|
Don't play the last note before 00:43.

[00:43]
F|----7----7----4----4------------0--0-0--0-|
C|-9----9----5----5----2--2-2--2------------|
G|------------------------------------------|
C|------------------------------------------|

[01:05]
F|----7----7----4----4------0-|
C|-9----9----5----5----2------|
G|----------------------------|
C|----------------------------|
Don't play the last note before 01:49.

[01:49]
F|----7----7----------------------|
C|-9----9----2-----(/4)5-----5--7-|
G|--------------------------------|
C|--------------------------------|

Here it is, you just have to know the song and play these parts when you have to repeat them.