Chase Coy - I Fell In Love Once Text Guitar Tab

Learn song with the online tabulature player
TITLE: I Fell In Love Once

Capo on 4th Fret
Tab arranged as if without capo (so starting in D chord)

INTRO

   D          D           D          A          G          
e|-2----------------------------------------------------|
B|---3--------3-----------3----------2----------0-------|
G|-----2--------2-----------0----------2----------0-----|
D|-0--------------0-----------0----------2----------0---|
A|------------4-----------2----------0------------------|
E|----------------------------------------------3-------|
   I fell in love once before, now I won’t be falling for   

   D          D           A
e|------------------------------------------------------|
B|-2----------2-----------2-----------------------------|
G|---3----------2-----------2---------------------------|
D|-----0----------0-----------2-------------------------|
A|-0----------0-----------0-----------------------------|
E|------------------------------------------------------|
   that any---more...


...


LYRICS

I fell in love once before, now I won’t be falling for that anymore
Somewhere in your basement, I think I misplaced my heart – what did I do that for?
I don’t want to see you, I don’t want to hear your sweet voice
No I don’t want to talk anymore
So if you happen to find it, I’d be much obliged if you’d drop it off at my front door.
And don’t leave a note, cuz I swear if you wrote me I’d probably take it all back
And God only knows I must stay on my toes, cuz I can’t allow myself to do that
I always wanted you to stay, but now I’m wishing you away
If this is what love feels like, I’m done with it.
I fell in love once before, now I won’t be falling for that anymore
You whispered to me and we watched some TV, as we lay on your living room floor
I don’t want to see you, I don’t want to hear your sweet voice
No I don’t want to talk anymore
So if you happen to think of me, don’t think that I will be waiting around like before.
And don’t call my phone, cuz I’m feeling alone and I’d probably take it all back
And God only knows I must stay on my toes, cuz I can’t allow myself to do that
I always wanted you to stay, but now I’m wishing you away
If this is what love feels like, I’m done with it.
I fell in love once before, now I won’t be falling for that anymore