Cheyenne Kimball - Four Walls Text Guitar Tab

Learn song with the online tabulature player
********** Capo second Fret **************
Intro
|------------2-2-2----------------------|
|------------3-3-3----------------------|
|------------2-2-2--2-2-2---------------|
|-------------------2-2-2--2-2-2-2-2-2--| x2
|---2-2-2------------------3-3-3-3-3-3--|
|---3-3-3-------------------------------|

Verse 1
|------------2-2-2----------------------|
|------------3-3-3----------------------|
|------------2-2-2--2-2-2---------------|
|-------------------2-2-2--2-2-2-2-2-2--|
|---2-2-2------------------3-3-3-3-3-3--|
|---3-3-3-------------------------------|
These four walls
They whisper to me
A little secrets
I knew they would not keep
|------------2-2-2----------------------|
|------------3-3-3----------------------|
|------------2-2-2--2-2-2---------------|
|---2-2-2-----------2-2-2--2-2-2-2-2-2--|
|---2-2-2------------------3-3-3-3-3-3--|
|---------------------------------------|
It didn't take long
For the room to fill with dust

Pre-chorus
|---------3-3-3----------|
|---------2-2-2----------|
|---------2-2-2----------|
|--2-2-2---------2-2-2---|
|--3-3-3---------3-3-3---|
|--2-2-2---------2-2-2---|
And these four walls came down around us

Chorus
|------------------2-2-2---------|
|------------------3-3-3---------|
|------------------2-2-2---------|
|---2-2-2-----------------2-2-2--|
|---3-3-3---2-2-2---------2-2-2--|
|-----------3-3-3----------------|
It must have been something to send me out of my head
With the words so radical and all that I meant
Now I wait
For a break
Inside it scars into all that you left
|------------------------2-2-2-----|
|------------------------3-3-3-----|
|------------------------2-2-2-----|
|---2-2-2-2-2-2--------------------|
|---3-3-3-3-3-3---2-2-2------------|
|-----------------3-3-3------------|
Just me and these four walls again


Intro
|------------2-2-2----------------------|
|------------3-3-3----------------------|
|------------2-2-2--2-2-2---------------|
|-------------------2-2-2--2-2-2-2-2-2--| x1
|---2-2-2------------------3-3-3-3-3-3--|
|---3-3-3-------------------------------|


Verse 2
|-------------------------------------|
|-------------------------------------|
|--2-2-2------------------------------|
|--2-2-2--2-2-2-----------------------|
|---------3-3-3-----------------------|
|-------------------------------------|
It's hard now to let you be
|--------2-2-2---------------------------|
|--------3-3-3---------------------------|
|--------2-2-2---2-2-2-------------------|
|----------------2-2-2---2-2-2-----------|
|-2-2-2------------------3-3-3-----------|
|-3-3-3----------------------------------|
I won't make excuses, I've made my peace
|--------2-2-2----------------|
|--------3-3-3----------------|
|--------2-2-2--2-2-2---------|
|-2-2-2---------2-2-2--2-2-2--|
|-2-2-2----------------3-3-3--|
|-----------------------------|
It didn't take long
For me to lose the trust
|--------2-2-2---------2-2-2---|
|--------3-3-3---------3-3-3---|
|--------2-2-2--2-2-2--2-2-2---|
|---------------2-2-2----------|
|-2-2-2------------------------|
|-3-3-3------------------------|
Cause these four walls
They're not strong enough

Chorus
|------------------2-2-2---------|
|------------------3-3-3---------|
|------------------2-2-2---------|
|---2-2-2-----------------2-2-2--|
|---3-3-3---2-2-2---------2-2-2--|
|-----------3-3-3----------------|
It must have been something to send me out of my head
With the words so radical and all that I meant
Now I wait
For a break
Inside it scars into all that you left
|------------------------2-2-2-----|
|------------------------3-3-3-----|
|------------------------2-2-2-----|
|---2-2-2-2-2-2--------------------|
|---3-3-3-3-3-3---2-2-2------------|
|-----------------3-3-3------------|
Just me and these four walls again

VERSE 2
|---------------------------------------------|
|---------------------------------------------|
|--2-2-2-2-2----------------------------------|
|--2-2-2-2-2--2-2-2-2-2-----------------------|
|-------------3-3-3-3-3-----------------------|
|---------------------------------------------|
It's hard now to let you be
|-------------2-2-2-2-2-----------------------|
|-------------3-3-3-3-3-----------------------|
|-------------2-2-2-2-2--2-2-2-2--------------|
|------------------------2-2-2-2--2-2-2-2-----|
|-2-2-2-2-2-----------------------3-3-3-3-----|
|-3-3-3-3-3-----------------------------------|
I won’t make excuses I’ve made my peace
|--------2-2-2-2-2----------------------------|
|--------3-3-3-3-3----------------------------|
|--------2-2-2-2-2---2-2-2-2-2----------------|
|-2-2-2--------------2-2-2-2-2----------------|
|-2-2-2-------------------------2-2-2-2-2-----|
|-------------------------------3-3-3-3-3-----|
It didn’t take long for me to lose this trust
|----------2-2-2-2-2-2---------------2-2-2-2-2-2--|
|----------3-3-3-3-3-3---------------3-3-3-3-3-3--|
|----------2-2-2-2-2-2—-2-2-2-2-2-2--2-2-2-2-2-2--|
|-----------------------2-2-2-2-2-2---------------|
|-2-2-2-2-----------------------------------------|
|-3-3-3-3-----------------------------------------|
Cause these four walls, they’re not strong enough

Chorus
|------------------2-2-2---------|
|------------------3-3-3---------|
|------------------2-2-2---------|
|---2-2-2-----------------2-2-2--|
|---3-3-3---2-2-2---------2-2-2--|
|-----------3-3-3----------------|
It must have been something to send me out of my head
With the words so radical and all that I meant
Now I wait
For a break
Inside it scars into all that you left
|------------------------2-2-2-----|
|------------------------3-3-3-----|
|------------------------2-2-2-----|
|---2-2-2-2-2-2--------------------|
|---3-3-3-3-3-3---2-2-2------------|
|-----------------3-3-3------------|
Just me and these four walls again

BRIDGE
|---------------------------------------------------|
|---------------------------------------------------|
|---------------------------------------------------|
|-2-2-2-2-2-----------------------------------------|
|-2-2-2-2-2------2-2-2-2-2-2-------2-2-2-2-2-2------|
|----------------3-3-3-3-3-3-------3-3-3-3-3-3------|
Yeah it’s difficult, watching us fade
|--2-2-2-2-2-2-------------------------------------|
|--3-3-3-3-3-3-------------------------------------|
|--2-2-2-2-2-2-------------------------------------|
|-----------------2-2-2-2-2-2----------------------|
|-----------------2-2-2-2-2-2----------------------|
|--------------------------------------------------|
Knowing it’s all my fault, my mistake
|--------------------------------------------------|
|--------------------------------------------------|
|--------------------------------------------------|
|--------------------------------------------------|
|--2-2-2-2-2-------2-2-2-2-2-2-2-2-----------------|
|--3-3-3-3-3-------3-3-3-3-3-3-3-3-----------------|
Yeah it’s difficult, watching us fade
|--2-2-2-2-2-2-------------------------------------|
|--3-3-3-3-3-3-------------------------------------|
|--2-2-2-2-2-2-------------------------------------|
|-----------------3-3-3-3-3-3----------------------|
|-----------------2-2-2-2-2-2----------------------|
|--------------------------------------------------|
Knowing it’s all my fault, my mistake

Chorus
|------------------2-2-2---------|
|------------------3-3-3---------|
|------------------2-2-2---------|
|---2-2-2-----------------2-2-2--|
|---3-3-3---2-2-2---------2-2-2--|
|-----------3-3-3----------------|
It must have been something to send me out of my head
With the words so radical and all that I meant
Now I wait
For a break
Inside it scars into all that you left
|------------------------2-2-2-----|
|------------------------3-3-3-----|
|------------------------2-2-2-----|
|---2-2-2-2-2-2--------------------|
|---3-3-3-3-3-3---2-2-2------------|
|-----------------3-3-3------------|
Just me and these four walls again


Ending
|------------2-2-2----------------------|
|------------3-3-3----------------------|
|------------2-2-2--2-2-2---------------|
|-------------------2-2-2--2-2-2-2-2-2--| x2
|---2-2-2------------------3-3-3-3-3-3--|
|---3-3-3-------------------------------|

*** My second tab =)! THIS IS 100% PERCENT! NO NEED FOR CORRECTIONS! I SAW HER LIVE!!!
YEAH AND my friend video taped her playing it at her concert and I watched it so this is
I got =)! Now the strumming is really easy and there’s a couple of rest just listen to
song it shouldn’t be difficult. ***