Cheyenne Kimball - Full Circle Text Guitar Tab

Learn song with the online tabulature player
********** Capo second Fret **************
Intro
|-----------------------------------2-2-2-2-2--|
|-----------------------------------3-3-3-3-3--|
|-----------------------------------2-2-2-2-2--|
|----------5-5-5--2-2-2-2—-3-3-3-3-------------| 
|--5-5-5---3-3-3--2-2-2-2--3-3-3-3-------------|
|--3-3-3---------------------------------------|

Verse
|-----------------------------------2-2-2-2-2--|
|-----------------------------------3-3-3-3-3--|
|-----------------------------------2-2-2-2-2--|
|----------5-5-5--2-2-2-2—-3-3-3-3-------------| 
|--5-5-5---3-3-3--2-2-2-2--3-3-3-3-------------|
|--3-3-3---------------------------------------|
Take everything out just put it back,
Right where you found it
|--------------------------------------|
|-3-3-3—-3-3-3-----------3-3-3-3-------|
|--------------------------------------|
|-3-3-3---------2-2-2-2--2-2-2-2-------|
|-2-2-2—-2-2-2--2-2-2-2--3-3-3-3-------|
|--------3-3-3-------------------------|
You, your hand in your jeans, 
were you waiting for me? 
Cause that’s how I found you.
|----------2-2-2-2---------------------|
|----------3-3-3-3—-3-3-3-3-3----------|
|----------2-2-2-2---------------------|
|-2-2-2-2-----------2-2-2-2-2----------|
|-2-2-2-2-----------3-3-3-3-3----------|
|--------------------------------------|
Every word seemed to roll of you tongue, 
like honey on my lips, 
I never thought I could get enough
|-----------------------------------2-2-2-2-2--|
|-----------------------------------3-3-3-3-3--|
|-----------------------------------2-2-2-2-2--|
|----------5-5-5--2-2-2-2—-3-3-3-3-------------| 
|--5-5-5---3-3-3--2-2-2-2--3-3-3-3-------------|
|--3-3-3---------------------------------------|
You took me around the block, 
But I couldn’t stop, I thought it was real.
|--------------------------------------|
|-3-3-3—-3-3-3-----------3-3-3-3-------|
|--------------------------------------|
|-3-3-3---------2-2-2-2--2-2-2-2-------|
|-2-2-2—-2-2-2--2-2-2-2--3-3-3-3-------|
|--------3-3-3-------------------------|
The rush so intoxicated, 
I look back and I hated, 
that I couldn’t tell.
|----------2-2-2-2---------------------|
|----------3-3-3-3—-3-3-3-3-3----------|
|----------2-2-2-2---------------------|
|-2-2-2-2-----------2-2-2-2-2----------|
|-2-2-2-2-----------3-3-3-3-3----------|
|--------------------------------------|
I’m lying all alone on the floor, 
Just laughing at myself.
How could I ever go back for more?
|--------------------------------------|
|-3-3-3—-3-3-3-----------3-3-3-3-------|
|--------------------------------------|
|-3-3-3---------2-2-2-2--2-2-2-2-------|
|-2-2-2—-2-2-2--2-2-2-2--3-3-3-3-------|
|--------3-3-3-------------------------|
Put, everything back
That you took out, right when it started.
|----------2-2-2-2---------------------|
|----------3-3-3-3—-3-3-3-3-3----------|
|----------2-2-2-2---------------------|
|-2-2-2-2-----------2-2-2-2-2----------| X2
|-2-2-2-2-----------3-3-3-3-3----------|
|--------------------------------------|
When we started……………………………………

Fill
|----------2-2-2-2---------------------|
|----------3-3-3-3—-3-3-3-3-3----------|
|----------2-2-2-2---------------------|
|-2-2-2-2-----------2-2-2-2-2----------|
|-2-2-2-2-----------3-3-3-3-3----------|
|--------------------------------------|

|----------2-2-2-2---------------------|
|----------3-3-3-3—-3-3-3-3-3----------|
|----------2-2-2-2---------------------|
|-2-2-2-2-----------2-2-2-2-2----------|
|-2-2-2-2-----------3-3-3-3-3----------|
|--------------------------------------|
How can I get back what you can’t give out again?
How can I face my mother, how can I face my friends?
How can I look in the mirror and try to love again?
*Single Strum*How can I get back what you can’t give out again? (x2)
Fill
|-----------------------------------2-2-2-2-2--|
|-----------------------------------3-3-3-3-3--|
|-----------------------------------2-2-2-2-2--|
|----------5-5-5--2-2-2-2—-3-3-3-3-------------| 
|--5-5-5---3-3-3--2-2-2-2--3-3-3-3-------------|
|--3-3-3---------------------------------------|

|-----------------------------------2-2-2-2-2--|
|-----------------------------------3-3-3-3-3--|
|-----------------------------------2-2-2-2-2--|
|----------5-5-5--2-2-2-2—-3-3-3-3-------------| 
|--5-5-5---3-3-3--2-2-2-2--3-3-3-3-------------|
|--3-3-3---------------------------------------|
Take my deepest breath, I just let it out, I will be stronger.
You took everything out, I put it back, just where you found it.

***If it’s close to correct if it is correct Comment or rate please! Thanks! ***