Chixdiggit - Chupacabra Text Guitar Tab

Learn song with the online tabulature player
----------------------------------------------------------------------------
                             Chupacabra - Chixdiggit
----------------------------------------------------------------------------
Tabbed by:Tom Nelson
Email:Theunravelling@live.com
This is how I hear it and play it. It sounds just as good with a 2 chord power chord as 
the 3 chord power chord so its your preference I guess.

Tuning:Standard

Intro: Play power chords 3 times
Play intro with tremelo picking first two

e|--------------------------------------------------------------------------|
B|--------------------------------------------------------------------------|
G|-----7-----7-----7--------------------------------------------------------|
D|-----7--7--7--7--7-7------------------------------------------------------|
A|-----5--7--5--7--5-7-----------------3x-----------------------------------|
E|--------5-----5----5------------------------------------------------------|

e|--------------------------------------------------------------------------|
B|----12---10---7----Tremelo picking---2x-----------------------------------|
G|--------------------------------------------------------------------------|
D|--------------------------------------------------------------------------|
A|--------------------------------------------------------------------------|
E|--------------------------------------------------------------------------|
Verse:2x
e|--------------------------------------------------------------------------|
B|--------------------------------------------------------------------------|
G|--------------------------------------------------------------------------|
D|-99999999999--77777777777--55555555555--77777777777--5-7------------------|
A|-99999999999--77777777777--55555555555--77777777777--5-7------------------|
E|-77777777777--55555555555--33333333333--55555555555--3-5------------------|

Chorus - Chupa yeah chupacabra
e|---------------------------------------------------------------------------|
B|---------------------------------------------------------------------------|
G|--------99999---------------------------7-----7-----7-7--------------------|
D|-99999--99999--777--5-7--55555--77777---7--7--7--7--7-7--------------------|
A|-99999--77777--777--5-7--55555--77777---5--7--5--7--5-7--------------------|
E|-77777---------555--3-5--33333--55555------5-----5----5--------------------|

Solo:
e|--------------------------------------------------------------------------|
B|-12-10/7--Tremelo Picking---14-14b5-14-12---------------------------------|
G|--------------------------------------------------------------------------|
D|--------------------------------------------------------------------------|
A|--------------------------------------------------------------------------|
E|--------------------------------------------------------------------------|
continued
e|--------------------------------------------------------------------------|
B|----------------------------14-15-17-2222222222222222222222---------------|
G|--------------------------------------------------------------------------|
D|--------------------------------------------------------------------------|
A|-----5-7/9-5\3 4x---------------------------------------------------------|
E|-5-7----------------------------------------------------------------------|

Chorus - Chupa yeah chupacabra
e|---------------------------------------------------------------------------|
B|---------------------------------------------------------------------------|
G|--------99999---------------------------7-----7-----7-7--------------------|
D|-99999--99999--777--5-7--55555--77777---7--7--7--7--7-7--------------------|
A|-99999--77777--777--5-7--55555--77777---5--7--5--7--5-7--------------------|
E|-77777---------555--3-5--33333--55555------5-----5----5--------------------|

| /  slide up
| \  slide down
| h  hammer-on
| p  pull-off
| ~  vibrato
| +  harmonic
| x  Mute note
===============================================================================