Chris Brown - Forever Acoustic Text Guitar Tab

Learn song with the online tabulature player
-------------------------------------------------------------------------------
                            Forever - Chris Brown
-------------------------------------------------------------------------------
Tabbed by: Tom
Email: tomackerly@gmail.com

Tuning: Half-Step down


Intro:

   1 & 2 &  1 & 2 &  1 & 2 &  1 & 2 &  1 & 2 &  1 & 2 &  1 & 2 &  1 & 2 &  1 & 2 &  1 & 2 &
eb|13--12--|--------|13--12--|--------|13--12--|------12|13----13|----12--|--------|--------|
Bb|------13|--------|------15|--------|------13|--------|--------|--------|13--15--|----13--|
Gb|--------|--------|--------|--------|--------|--------|--------|--------|--------|--------|
Db|--------|--------|--------|--------|--------|--------|--------|--------|--------|--------|
Ab|--------|--------|--------|--------|--------|--------|--------|--------|--------|--------|
Eb|--------|--------|--------|--------|--------|--------|--------|--------|--------|--------|


   1 & 2 &  1 & 2 &  1 & 2 &  1 & 2 &  1 & 2 &  1 & 2 &  1 & 2 &  1 & 2 &
eb|121312--|--------|13--12--|--------|13--12--|------12|13----13|------12
Bb|------13|--------|------15|--------|------13|--------|--------|--------
Gb|--------|--------|--------|--------|--------|--------|--------|--------
Db|--------|--------|--------|--------|--------|--------|--------|--------
Ab|--------|--------|--------|--------|--------|--------|--------|--------
Eb|--------|--------|--------|--------|--------|--------|--------|--------

Verse/Chorus/Bridge:

   1 & 2 &  1 & 2 &  1 & 2 &  1 & 2 &  1 & 2 &  1 & 2 &  1 & 2 &  1 & 2 &
eb|3~------|--------|3~------|--------|3~------|--------|3~------|3~------|
Bb|1~------|--------|1~------|--------|1~------|--------|1~------|1~------|
Gb|2~------|--------|0~------|--------|0~------|--------|2~------|0~------|
Db|3~------|--------|2~------|--------|0~------|--------|2~------|0~------|
Ab|--------|--------|3~------|--------|2~------|--------|0~------|2~------|
Eb|--------|--------|--------|--------|3~------|--------|-~------|3~------|