Chris Daughtry - Feels Like Tonight Text Guitar Tab

Learn the song with the online tablature player
                             Feels Like Tonight - Chris Daughtry

Intro/Verse
Guitar 1

The intro is played once, then play through whole verse.

e|---------------------------------------------------------------------------|
B|--7-----7-----7---6-----6-----6---7-----7-----7---7-----7-----7------------|
G|----6-----6-----6---6-----6-----6---6-----6-----6---6-----6-----6----------|
D|------4-----4---------4-----4---------4-----4---------4-----4--------------|
A|---------------------------------------------------------------------------|
D|---------------------------------------------------------------------------|

Chorus/Verse. (Listen for strumming to find out what part it is, the progression is the same.)
Guitar 2

e|---------------------------------------------------------------------------|
B|---------------------------------------------------------------------------|
G|--------6---------4--------------------------------------------------------|
D|---4----6----1----4--------------------------------------------------------|
A|---4----4----1----2--------------------------------------------------------|
D|---4---------1-------------------------------------------------------------|

Bridge
Both guitars  (Make your own strumming)

e|---------------------------------------------------------------------------|
B|---------------------------------------------------------------------------|
G|------------4----6--------------4------------------------------------------|
D|--1----4----4----6----1----4----4---------x2-------------------------------|
A|--1----4----2----4----1----4----2------------------------------------------|
D|--1----4--------------1----4-----------------------------------------------|

Intro
Verse
Chorus
Verse
Chorus
Bridge

Chorus
End the song on a Gb)

| /  slide up
| \  slide down
| h  hammer-on
| p  pull-off
| ~  vibrato
| +  harmonic
| x  Mute note