Chris Daughtry - What I Want Text Guitar Tab

Learn song with the online tabulature player
----------------------------------------------------------------------------
			Daughtry - What I want 
----------------------------------------------------------------------------
Tabbed by:Pete Griffin

I tabbed this song by ear so it is by no means perfect.  A video of me 
playing this song can be found here: http://uk.youtube.com/watch?v=MNfiNRtZwKs

Comment and rate please, enjoy.

Tuning: Db ab db gb bb eb (drop D down half a step)

Intro
e|--------------------------------------------------------|
B|--------------------------------------------------------|
G|--------------------------------------------------------|
D|-5-h-7--0--5-h-7--0--3-3-3-3-3-3-3-3-3--3/5-5-5-5-5-5---|
A|-5-h-7--0--5-h-7--0--3-3-3-3-3-3-3-3-3--3/5-5-5-5-5-5---|
E|-5-h-7--0--5-h-7--0--3-3-3-3-3-3-3-3-3--3/5-5-5-5-5-5---|

e|--------------------------------------------------------|
B|----------6\5------------------------6\5----------------|
G|----7-5h7-----7-5-7---5-7-5-7--7-5h7-----7-5-7---5-7-5-7|
D|-0------------------7--------------------------7--------|
A|-0------------------------------------------------------|
E|-0------------------------------------------------------|

verse 1
e|--------------------------------------------------------|
B|--------------------------------------------------------|
G|--------------------------------------------------------|
D|-0-0-0-0-0-0-0-0--5h7-0-5h7-0-3-3-3-3----3-3-3/5-5-5----|
A|-0-0-0-0-0-0-0-0--5h7-0-5h7-0-3-3-3-3----3-3-3/5-5-5----|
E|-0-0-0-0-0-0-0-0--5h7-0-5h7-0-3-3-3-3-3*-3-3-3/5-5-5----|
					ph

e|--------------------------------------------------------|
B|--------------------------------------------------------|
G|-4b(5)r4p0----------------------------------------------|
D|-----------3-0-0-0-0-0-0-0-0--5h7-0-5h7-0-3 5br5b--11(t)|
A|-------------0-0-0-0-0-0-0-0--5h7-0-5h7-0-3-------------|
E|-------------0-0-0-0-0-0-0-0--5h7-0-5h7-0-3-------------|

e|--------------------------------------------------------|
B|--------------------------------------------------------|
G|--------------------------------------------------------|
D|-5-5-5-5------------------------------------------------|
A|-5-5-5-5--5-5-5-----------------------------------------|
E|-5-5-5-5------------------------------------------------|
	  nh-----

chorus
e|--------------------------------------------------------|
B|-3-3-3-3-3----------------------------------------------|
G|-2-2-2-2-2--5-5-5-5-5-----------------------------------|
D|-0-0-0-0-0--5-5-5-5-5-5-5-5-5-5-5-5-5-5-5--3-3-3--------|
A|-0-0-0-0-0--3-3-3-3-3-5-5-5-5-5-5-5-5-5-5--3-3-3--------|
E|-0-0-0-0-0------------5-5-5-5-5-5-5-5-5-5--3-3-3--------|

e|--------------------------------------------------------|
B|-3-3-3-3-3----------------------------------------------|
G|-2-2-2-2-2--5-5-5-5-5-----------------------------------|
D|-0-0-0-0-0--5-5-5-5-5-5-5-5-5-5-5-5-5-5-5--3-3-3--------|
A|-0-0-0-0-0--3-3-3-3-3-5-5-5-5-5-5-5-5-5-5--3-3-3--------|
E|-0-0-0-0-0------------5-5-5-5-5-5-5-5-5-5--3-3-3--------|

e|--------------------------------------------------------|
B|----------6\5------------------------6\5----------------|
G|----7-5h7-----7-5-7---5-7-5-7--7-5h7-----7-5-7---5-7-5-7|
D|-0------------------7--------------------------7--------|
A|-0------------------------------------------------------|
E|-0------------------------------------------------------|


verse 2
e|--------------------------------------------------------|
B|--------------------------------------------------------|
G|--------------------------------------------------------|
D|-0-0-0-0-0-0-0-0-0--5h7-0-5h7-0-3-3-----3-3------10\5---|
A|-0-0-0-0-0-0-0-0-0--5h7-0-5h7-0-3-3-----3-3-10\5--------|
E|-0-0-0-0-0-0-0-0-0--5h7-0-5h7-0-3-3-3*b-3-3-------------|
				     ph
e|--------------------------------------------------------|
B|--------------------------------------------------------|
G|-10\5-------------------------------------------10-12-10|
D|------0-0-0-0-0-0-0-0--5h7-0-5h7-0-3------10-12---------|
A|------0-0-0-0-0-0-0-0--5h7-0-5h7-0-3--/12---------------|
E|------0-0-0-0-0-0-0-0--5h7-0-5h7-0-3--------------------|

e|--------------------------------------------------------|
B|--------------------------------------------------------|
G|--------------------------------------------------------|
D|-0-5-5-5-5-5----5---------------------------------------|
A|-0-5-5-5-5-5--5-----------------------------------------|
E|-0-5-5-5-5-5--------------------------------------------|
		nh--

Bridge
e|--------------------------------------------------------|
B|--------------------------------------------------------|
G|-5-5-5-5-5-5-5-5----------------------------------------|
D|-5-5-5-5-5-5-5-5-5-5-5-5-5-5-5-5--8-8-8-8-8-8-8-8-------|
A|-3-3-3-3-3-3-3-3-5-5-5-5-5-5-5-5--8-8-8-8-8-8-8-8-------|
E|-----------------5-5-5-5-5-5-5-5--8-8-8-8-8-8-8-8-------|

e|--------------------------------------------------------|
B|--------------------------------------------------------|
G|--------------------------------------------------------|
D|-7-7-7-7-7-7-7-7----------------------------------------|
A|-7-7-7-7-7-7-7-7----------------------------------------|
E|-7-7-7-7-7-7-7-7----------------------------------------|


solo
e|--------------------------------------------------------|
B|--------------------------------------------------------|
G|------------------------------5---------5---------------|
D|--5b(7)--5b(7)r5p3-5---3----7---7---5h7---7p6p5---5-3---|
A|---------------------5---5----------------------5-------|
E|--------------------------------------------------------|

e|--------------------------------------------------------|
B|--------6b(8)-5-----------------------8b-6------6-------|
G|----------------5-9b(10)r9--10p9p7---------7------7-----|
D|-5p3p0-----------------------------10-------------------|
A|--------------------------------------------------------|
E|--------------------------------------------------------|

e|-----------------------------------12----------15p13----|
B|-8p6----10p8-----13p10----15p13-------15p13----------15-|
G|-----7-------10--------12-------14----------14----------|
D|--------------------------------------------------------|
A|--------------------------------------------------------|
E|--------------------------------------------------------|

e|-17p15-----20p17----20p17h20-20b(22)--------------------|
B|-------18--------20-------------------------------------|
G|--------------------------------------------------------|
D|--------------------------------------------------------|
A|--------------------------------------------------------|
E|--------------------------------------------------------|


The rest of the song is just the chorus.




| /  slide up
| \  slide down
| h  hammer-on
| p  pull-off
| ~  vibrato
| +  harmonic
| x  Mute note
=============================================================