Chris Tomlin - Enough Text Guitar Tab

Learn song with the online tabulature player
This song is played on capo 6 as i saw in one of his videos. It sounds the best in that
anyways..ANyways all the numbers are relative to capo 6.

--------0-----------------------------|
------3---------2-------2--------2----|
----2---------0-------0--------0------|
--0---------0-------2--------0--------|
---------0h2------0-------------------|
---------------------------3----------|
repeat twice and the chorus begins with the same notes played minus the hammer on. Play
times in the chorus until "all i have in you". WHen all is sung you play

----------------------------------|
-------2-------2-------2-------2--|
-----0-------0-------0-------0----|
---0-------0-------2-------0------|
-----------------0----------------|
-2-------3---------------3--------|

and go bak to intro and play the notes twice and go into verse 1

-------0-------------------------------------------------------------|
-----2---------2-------2-------2--------2--------2----------------2--|
---2---------0-------0-------0--------0--------0---------0------0----|
-0---------0-------2-------0--------0--------0---------2------2------|
-----------------0-----------------------------------2------0--------|
---------3---------------3--------2--------3-------0-----------------|

and go to chorus but strum it this time.. after u figure out the fingering of the chords
easy to strum. I presonally don't kno the names of the chords he plays but yeh just try
best its not that hard. I know this tab my be faulty being my first so contact me at
williamchen06@yahoo.com