Christian Bautista - You Text Guitar Tab

Learn song with the online tabulature player
Title: You
Artist: Christian Bautista

Tuning: standard tuning

Intro:

e||-----------3-----------3--|-----------------3--------|-----3--------|
B||--------1-----1-----1-----|--1-----------1-----1-----|--1-----1-----|
G||-----0-----------0--------|-----0-----2-----------2--|-----------2--|
D||--------------------------|--------3-----------------|--------------|
A||--3-----------------------|--------------------------|--------------|
E||--------------------------|--------------------------|--------------|

-----------3-----------3--|-----------------3--------||
--------1-----1-----1-----|--1-----------1-----1-----||
-----0-----------0--------|-----0-----2-----------2--||
--------------------------|--------3-----------------||
--3-----------------------|--------------------------||
--------------------------|--------------------------||


Verse:
    C
You give me hope
    FM7
The strength, the will to keep on
Fm              Bb7               C
No one else can make me feel this way
    Am/F#
And only you
    B7        Em                 A7sus,A7
Can bring out all the best I can do
Dm7           C/E
I believe you turn the tide
FM7                   G7sus  G7
And make me feel real good inside
    C
You pushed me up
     FM7
When I'm about to give up
       Fm              Bb7             C
You're on my side when no one seems to listen
    Am/F#
And if you go
    B7       Em                   A7sus,A7
You know the tears can't help but show
Dm7                         C/E
You'll break this heart and tear it apart
     FM7          G7sus    G7
Then suddenly the madness starts

Chorus:
         Am/F#
It's you smile
     Fm                     Em
Your face, your lips that I miss
      Am7                    Dm7
Those sweet little eyes that stare at me
    C/E
And make me say
FM7                  G7sus   G7
I'm with you through all the way 
           Am/F#
Cause it's you
    Fm             Em      Am7
Who fills the emptiness in me
Dm7             C/E
It changes everything, you see
FM7                G
When you know I've got you with  me

Intro

Verse 
    C
You pushed me up
    FM7
When Im about to give up
Fm              Bb7               C
You're on my side when no one seems to listen
    Am/F#
And If you go
    B7       Em                   A7sus,A7
You know the tears can't help but show
Dm7                         C/E
You'll break this heart and tear it apart
     FM7          G7sus    G7
Then suddenly the madness starts

(repeat chorus except for the last word)
    (interlude)
...me
Interlude: Am/F#-Fm-Em7-EbM7-Dm7-
	   Dm7/G,G7,CM7,Am/F#,C7
(repeat chorus)
								    with
e||-----------3-----------3--|-----------------3--------|-----3--------|
B||--------1-----1-----1-----|--1-----------1-----1-----|--1-----1-----|
G||-----0-----------0--------|-----0-----2-----------2--|-----------2--|
D||--------------------------|--------3-----------------|--------------|
A||--3-----------------------|--------------------------|--------------|
E||--------------------------|--------------------------|--------------|

  me...								     let ring
-----------3-----------3--|-----------------3----------(3)-0--||
--------1-----1-----1-----|--1-----------1-----1----(1)----1--||
-----0-----------0--------|-----0-----2-----------2--------0--||
--------------------------|--------3-----------------------2--||
--3-----------------------|--------------------------------3--||
--------------------------|-----------------------------------||