Cinderella - Save Me Text Bass Tab

Learn song with the online tabulature player
Cinderella: Save Me
From the album: Night Songs
Tabbed by: Derrick Morris

Standard tuning: E A D G

G------|--------------------------
D------|--------------------------
A--0---|--3--0--0--5--0--0--3--2--
E------|--------------------------
intro     fills (entire song)

G------------------------------------------------------
D------------------------------------------------------
A--0-0-0-0-0-0-0-0-0-0-0-0-0-0-0--3--0-0--5--0-0--3-2--
E------------------------------------------------------
verses and chorus

G------------------------------------
D------------------------------------
A--5---5-5-5-5-5---0--0-0-0-0-0------
E---------------------------------3--
pre chorus bridge

G-------------------
D-------------------
A--3--0-0---5----3--
E-------------------
pre solo fill

G--------------------------------
D--------------------------------
A--2--2--2--2---5-5-5-5-5-5-5-5--
E--------------------------------
solo X3