City And Colour - Waiting Text Guitar Tab

Learn song with the online tabulature player
Here's another idea for the song Waiting...
Capo on 2nd

Acoustic
e---000-00-00-000-00-00-000-00-00---000-00-000-00-000---|
B---000-00-00-000-00-00-000-00-00---000-00-000-00-000---|
G---000h22-22-000h22-22-000h22-22---444-00-444-00-444---|
D---000h22-22-000h22-22-000h22-22---000-00-000-00-000---|
A---333-33-33-333-33-33-333-33-33---220h22-220h22-222---|
E---333-33-33-333-33-33-333-33-33---333-33-333-33-333---|
Lead
e--------------------------------------------|
B-------------0------------------0-----------|
G-----------0------------------0-------------|
D-------0h2-----2----------0h2-----2---------|
A-----------------3---0--------------3---0---|
E-----3-------------3-----3------------3-----|
  than this...
Acoustic
e---000-00-00-000-00-00-000-00-00---000-00-000-00-000---|
B---000-00-00-000-00-00-000-00-00---000-00-000-00-000---|
G---000h22-22-000h22-22-000h22-22---444-00-444-00-444---|
D---000h22-22-000h22-22-000h22-22---000-00-000-00-000---|
A---333-33-33-333-33-33-333-33-33---220h22-220h22-222---|
E---333-33-33-333-33-33-333-33-33---333-33-333-33-333---|
Lead
e-------------------------------------------------|
B-------------------------------------------------|
G---0h2p0-----------0-------0h2p0-----------0-----|
D---------0-------2---0-----------0-------2---0---|
A-0---------3---3---------0---------3---3---------|
E-------------3-----------------------3-----------|
 Attempting../Full of something
e------------------------------------------------------|
B------------------------------------------------------|
G----------0-------0-----------------0------0----------|
D------0h2-------2---2---0-------0h2------2---2---0----|x3
A------------0h3-------3---------------0h3------3------|
E----3---------------------3---3--------------------3--|
 to begin../underneath it all

Chorus
=
Acoustic
e--0----0000-0000-0000-0000----0000-0000-0000-0000---0---0----------0----|
B--0----0000-0000-0000-0000----0000-0000-0000-0000---0---0---------0-----|
G--0----0000-0000-0000-0000----0000-0000-0000-0000---0---0--------0------|
D--2//7-2222-0000-4444-2222//7-2222-0000-4444-2222---2/7-2-2/7---2-------|
A--3//8-2222-2222-5555-3333//8-2222-2222-5555-3333---3/8-2-3/8--3--------|
E--3//8-0000-3333-5555-3333//8-0000-3333-5555-3333---3/8-0-3/8-3---------|

 Lead
e----------------------------------------------------------|
B----------------------------------------------------------|
G------0h2--4*---4---2p0---------0h2--4*-(2)--2p0----------|x2
D---0h2-------------------2*---0h2----------------2p0------|
A-----------------------------------------------------3----|
E----------------------------------------------------------|
  So say../theres no need to rush..
=
Acoustic
e---000-00-00-000-00-00-000-00-00---000-00-000-00-000---|
B---000-00-00-000-00-00-000-00-00---000-00-000-00-000---|
G---000h22-22-000h22-22-000h22-22---444-00-444-00-444---|
D---000h22-22-000h22-22-000h22-22---000-00-000-00-000---|
A---333-33-33-333-33-33-333-33-33---220h22-220h22-222---|
E---333-33-33-333-33-33-333-33-33---333-33-333-33-333---|

Lead
e-----------0-------------0-------|
B---------0-0----------0--0-------|
G-------0---0--------0----0-------|x2
D---0h2-----2----0h2------2-------|
A-----------3-------------3-------|
E-----------3-------------3-------|
  A little thing to miss...

Acoustic
e---0000-0000-0000-0000-------|
B---0000-0000-0000-0000-------|
G---0000-0000-0000-0000-------|
D---4444-2222-2222-2222-------|x2
A---5555-3333-2222-3333-------|
E---5555-3333-0000-3333-------|

Lead
e--------3----------------------3-----------------    e-------------|
B----3-------3----3p2p0----3---------3------3p2p0-    B-------------|
G-------------------------------------------------x8  G-----0h2--4*-|
D-------------------------------------------------    D--0h2--------|
A-------------------------------------------------    A-------------|
E--3---3---3----3-------3-----3----3-----3--------    E-------------|

Acoustic
e--0----0000-0000-0000-0000----0000-0000-0000-0000---|
B--0----0000-0000-0000-0000----0000-0000-0000-0000---|
G--0----0000-0000-0000-0000----0000-0000-0000-0000---|
D--2//7-2222-0000-4444-2222//7-2222-0000-4444-2222---|
A--3//8-2222-2222-5555-3333//8-2222-2222-5555-3333---|
E--3//8-0000-3333-5555-3333//8-0000-3333-5555-3333---|
  Oooh  ooh Oohh.....

e---------|
B---------|
G--4*-----|
D-----222-|
A---------|
E---------|