Clash - Should I Stay Or Should I Go Text Bass Tab

Learn the song with the online tablature player
Just Guitar On The First

G--------------------------------
D--------------------------------
A-5555---345--------------------
E------33------------------------

G--------------------------------
D--------------------------------
A-5555---345--------------------
E------33------------------------

G--------------------------------
D--------------------------------
A-5555---345--------------------
E------33------------------------

G--------------------------------
D--------------------------------
A-5555---345--------------------
E------33------------------------

G-------------------------------
D-------------------------------
A-------------------------------
E-3333-11123--------------------

G--------------------------------
D--------------------------------
A-5555---345--------------------
E------33------------------------

G---------------
D---------------
A---------------
E-555555555----

G--------------------------------
D--------------------------------
A-5555---345--------------------
E------33------------------------

G--------------------------------
D--------------------------------
A-5555---345--------------------
E------33------------------------

G--------------------------------
D--------------------------------
A-5555---345--------------------
E------33------------------------

G-------------------------------
D-------------------------------
A-------------------------------
E-3333-11123--------------------

G--------------------------------
D--------------------------------
A-5555---345--------------------
E------33------------------------

G---------------
D---------------
A---------------
E-555555555----

G--------------------------------
D--------------------------------
A-5555---345--------------------
E------33------------------------

G---------------------7-5------
D--------4567-------------7-5--
A-5-5-55-------5-5-55----------
E-------------------------------

G---------------------7-5------
D--------4567-------------7-5--
A-5-5-55-------5-5-55----------
E-------------------------------

G-------------------------------
D-------------------------------
A-------------------------------
E-3333-1111-3333-1111----------

G---------------------7-5------
D--------4567-------------7-5--
A-5-5-55-------5-5-55----------
E-------------------------------

G--------------------------------
D--------------------------------
A-5555---345--------------------
E------33------------------------

G--------------------------------
D--------------------------------
A-5555---345--------------------
E------33------------------------

G-------------------------------
D-------------------------------
A-------------------------------
E-3333-11123--------------------

G--------------------------------
D--------------------------------
A-5555---345--------------------
E------33------------------------

G---------------
D---------------
A---------------
E-555555555----

G--------------------------------
D--------------------------------
A-5555---345--------------------
E------33------------------------

G--------------------------------
D--------------------------------
A-5555---345--------------------
E------33------------------------

G--------------------------------
D--------------------------------
A-5555---345--------------------
E------33------------------------

G-------------------------------
D-------------------------------
A-------------------------------
E-3333-11123--------------------

G--------------------------------
D--------------------------------
A-5555---345--------------------
E------33------------------------

G---------------
D---------------
A---------------
E-555555555----

G--------------------------------
D--------------------------------
A-5555---345--------------------
E------33------------------------

G---------------------7-5------
D--------4567-------------7-5--
A-5-5-55-------5-5-55----------
E-------------------------------

G---------------------7-5------
D--------4567-------------7-5--
A-5-5-55-------5-5-55----------
E-------------------------------

G-------------------------------
D-------------------------------
A-------------------------------
E-3333-1111-3333-1111----------

G---------------------7-5------
D--------4567-------------7-5--
A-5-5-55-------5-5-55----------
E-------------------------------

G---------------------7-5------
D--------4567-------------7-5--
A-5-5-55-------5-5-55----------
E-------------------------------

G---------------------7-5------
D--------4567-------------7-5--
A-5-5-55-------5-5-55----------
E-------------------------------

G-------------------------------
D-------------------------------
A-------------------------------
E-3333-1111-3333-1111----------

G---------------------7-5------
D--------4567-------------7-5--
A-5-5-55-------5-5-55----------
E-------------------------------

G--------------------------------
D--------------------------------
A-5555---345--------------------
E------33------------------------