Clearlake - Trees In The City Text Guitar Tab

Learn song with the online tabulature player
-------------------------------------------------------------------------------
			     TREES IN THE CITY - Clearlake
-------------------------------------------------------------------------------

Tabbed By : Jim Collett

[Intro & choruses]

G|------------------------------------------|
D|------------------------------------------| x 3
A|---4-------2------------------------------|
E|--------------5-------0-------5--0--------|

G|------------------------------------------|
D|------------------------------------------| 
A|---4-------2------------------2-----------|
E|--------------5-------0----------0--------|


[Verses]

G|---------------------------------------------------------------|
D|---------------------------------------------------------------|
A|-----4---2-----------4---2-----------4---2--------1---2--------|
E|---4---4-----------4---4-----------4---4-----------------------|

G|---------------------------------------------------------------|
D|---------------------------------------------------------------|
A|-----4---2-----------4---2-----------4---2--------2------------|
E|---4---4-----------4---4-----------4---4--------------0--------|