Colbie Caillat - Magic Text Guitar Tab

Learn song with the online tabulature player
-------------------------------------------------------------------------------
                             Magic - Colbie Caillat
-------------------------------------------------------------------------------
Tabbed by: JGervais
Email: n/a

Tuning: Standard with Capo on 3rd Fret

e|---3-------------------------------------------------------------------|
B|---3------------3---------------------------------------3--------------|
G|---0----0h2p0------0----0--0h2p0--------------------------0---0--------|
D|---0--------------------------------0h2p0--------0h2-------------2-----|
A|---x-----------------------------------------3-------------------------|
E|---3-------------------------------------------------------------------|

e|---3----------------------------------------------------3------2-------|
B|---3------------3-----------------------------------------3-----3------|
G|---0----0h2p0------0----0--0h2p0---------------------------------------|
D|---0--------------------------------0h2p0--------0h2-------------------|
A|---x-----------------------------------------3-------------------------|
E|---3-------------------------------------------------------------------|

Listen to the song for the timing of each note... 

************************************


| h   hammer-on
| p   pull-off
| x   Mute note


************************************