Colby Odonis - What You Got Text Guitar Tab

Learn song with the online tabulature player
I have yet to see an accurate tab of this song, so here is an acoustic version I tabbed
in order to pick up girls easier ;). This is basically the whole song. I tabbed it out
Guitarpro originally, but converted to this format so more people could use it. If I get 
requests, I'll upload the guitarpro version. Enjoy singing/playing this to some
ladies!

     E   E   E  E   E   E  E   E     E  E   E  E  E   E  E  E
E||-------------------------------|----------------------------|
B||--9----------9----------9------|--8---------8---------8-----|
G||-----10---------10---------10--|-----8---------8---------8--|
D||---------10---------10---------|--------10--------10--------|
A||--8----------------------------|----------------------------|
E||-------------------------------|--8-------------------------|


  E  E  E  E  E  E  E  E     E  E  E  E  E  E  E  E   4x
--4--------4--------4-----|---------------------------||
-----6--------6--------6--|--6--------6--------6--8---||
--------6--------6--------|-----6--------6-----------*||
--------------------------|--------8--------8--------*||
--4-----------------------|---------------------------||
--------------------------|--6------------------------||


    E.   E.  E   E   E   Q        E.   E.  E   E   E   Q
------------------------------|-----------------------------|
----9----9---x---9---9---9----|---8----8---x---8---8---8----|
*--10---10---x--10--10--10----|---8----8---x---8---8---8----|
*--10---10---x--10--10--10----|--10---10---x--10--10--10----|
----8----8---x---8---8---8----|------------x----------------|
------------------------------|---8----8-------8---8---8----|


  E.  E.  E  E  E  Q       E.  E.  E  E  E  Q
--4---4------4--4--4----|-------------------------||
--6---6---x--6--6--6----|--6---6---x--6--6--6-----||
--6---6---x--6--6--6----|--6---6---x--6--6--6----*||
----------x-------------|--8---8---x--8--8--8----*||
--4---4---x--4--4--4----|----------x--------------||
------------------------|--6---6------6--6--6-----||


    Q    E   E  E   E  Q        Q    E   E  E   E  Q
----------------------------|---------------------------|
----9----x---9--x---9--x----|---8----x---8--x---8--x----|
*--10----x--10--x--10--x----|---8----x---8--x---8--x----|
*--10----x--10--x--10--x----|--10----x--10--x--10--x----|
----8----x---8--x---8--x----|--------x------x------x----|
----------------------------|---8--------8------8-------|


  Q    E  E  E  E  Q       Q    E  E  E  E  Q
--4-------4-----4-------|-------------------------||
--6----x--6--x--6--x----|--6----x--6--x--6--x-----||
--6----x--6--x--6--x----|--6----x--6--x--6--x----*||
-------x-----x-----x----|--8----x--8--x--8--x----*||
-------x-----x-----x----|-------x-----x-----x-----||
--4-------4-----4-------|--6-------6-----6--------||


Duration Legend
---------------
W - whole
H - half
Q - quarter
E - 8th
S - 16th
T - 32nd
X - 64th
. - note dotted
|-n-|  - n-tuplets


Tablature Legend
----------------
L - tied note
x - dead note
g - grace note
(n) - ghost note
> - accentuded note
NH - natural harmonic
AH - artificial harmonic
TH - tapped harmonic
SH - semi harmonic
PH - pitch harmonic
h - hammer on
p - pull off
b - bend
br - bendRelease
pb - preBend
pbr - preBendRelease
brb - bendReleaseBend
\n/ - tremolo bar dip
\n - tremolo bar dive
-/n - tremolo bar Release up
/n\ - tremolo bar inverted dip
/n - tremolo bar return
-\n - tremolo bar Release down
S - shift slide
s - legato slide
/ -  slide into from below or out of upwards
\ -  slide into from above or out of downwards
~ - vibrato
W - wide vibrato
tr - trill
TP - tremolo picking
T - tapping
S - slap
P - pop
< - fade in
^ - brush up
v - brush down