Company Of Thieves - In Passing Chords

 
         
         
         
         
         
X
2
3
1
5 fr
         
         
         
         
         
1
3
4
1
1
1
5 fr
         
         
         
         
         
X
X
1
1
1
8 fr
         
         
         
         
         
X
3
2
4
1
2 fr
         
         
         
         
         
X
1
4
4
4
7 fr
         
         
         
         
         
X
1
3
4
2

9 fr
         
         
         
         
         
X
4
3
1
2
X
12 fr
         
         
         
         
         
X
1
3
4
2
1
5 fr
         
         
         
         
         
X
         
         
         
         
         
X
2
1
3
4
         
         
         
         
         
X
1
3
1
4
1
7 fr
         
         
         
         
         
1
3
1
2
1
1
7 fr
         
         
         
         
         
1
X
2
4
3
X
2 fr
         
         
         
         
         
X
1
3
3
3
4
4 fr
         
         
         
         
         
4
3
1
1
1
2

7 fr
         
         
         
         
         
1
3
1
2
X
1
7 fr
         
         
         
         
         
1
3
1
2
4
1
9 fr
         
         
         
         
         
X
X
1
3
2
4
         
         
         
         
         
X
3
2
1
3 fr
         
         
         
         
         
X
1
2
3
4
1
8 fr
         
         
         
         
         
1
3
4
2
1
1
3 fr
         
         
         
         
         
X
1
X
3
4
1
5 fr
         
         
         
         
         
3
2
1
1
1
4
10 fr
         
         
         
         
         
X
X
1
3
4
3

12 fr
         
         
         
         
         
X
4
3
1
2
1
3 fr
         
         
         
         
         
X
         
         
         
         
         
2
3
3 fr
         
         
         
         
         
X
X
2
4
1
7 fr
         
         
         
         
         
X
1
3
4
2
1
2 fr
         
         
         
         
         
X
X
1
3
4
2
3 fr
         
         
         
         
         
X
3
2
4
1
4 fr
         
         
         
         
         
X
4
3
1
2
X

12 fr
         
         
         
         
         
1
3
4
1
1
1
         
         
         
         
         
3
2
4
3 fr
         
         
         
         
         
1
3
4
2
1
1
         
         
         
         
         
2
1
3
4
3 fr
         
         
         
         
         
X
X
3
2
1
1
5 fr
         
         
         
         
         
X
X
1
3
4
3
7 fr
         
         
         
         
         
X
4
3
1
2
1

10 fr
         
         
         
         
         
X
1
2
3
4
X
10 fr
         
         
         
         
         
X
1
3
3
3
1
12 fr
         
         
         
         
         
3
2
1
1
1
4
3 fr
         
         
         
         
         
X
1
3
4
2
1
8 fr
         
         
         
         
         
1
3
4
1
1
1
         
         
         
         
         
X
3
1
X
X
         
         
         
         
         
X
4
1
2
X
8 fr
         
         
         
         
         
X
X
3
1
1
1
10 fr
         
         
         
         
         
X
X
1
3
4
2

12 fr
         
         
         
         
         
X
4
3
1
2
X
         
         
         
         
         
X
X
2
1
3
5 fr
         
         
         
         
         
X
1
3
1
4
1
5 fr
         
         
         
         
         
X
X
1
3
1
10 fr
         
         
         
         
         
1
3
1
2
1
1
5 fr
         
         
         
         
         
X
1
3
3
3
4
7 fr
         
         
         
         
         
4
3
1
1
1
2

10 fr
         
         
         
         
         
1
3
1
2
X
1
10 fr
         
         
         
         
         
1
3
1
2
4
1
12 fr
         
         
         
         
         
X
X
1
3
2
4
7 fr
         
         
         
         
         
1
3
4
2
1
1
         
         
         
         
         
X
2
1
X
3
         
         
         
         
         
X
1
4
4
4
X
         
         
         
         
         
X
1
3
3
3
1
4 fr
         
         
         
         
         
4
3
1
1
1
X
4 fr
         
         
         
         
         
3
2
1
1
1
4

9 fr
         
         
         
         
         
X
X
1
3
4
3
11 fr
         
         
         
         
         
X
4
3
1
2
1
No chord
    
Standard guitar tuning:
E
A
D
G
B
E
No capo
Chords:

Am B7 C Em G Cm D7

e -0---2---0--0---3--3---2---| b -1---0---1--0---3--4---1---| G -2---2---0--0---0--5---2---| D -2---1---2--2---0--5---0---| A -0---2---3--2---2--3-------| E ------------0---3----------|
Main Riff:
  e -----3---------5-----2-----------3--------5/7----2--|
  b ----------------------------------------------------|
  G -/4-------4/5--------2------/4-------4/5--5/7----2--|
  D ----------------------------------------------------|
  A ----------------------------------------------------|
  E ----------------------------------------------------|

Intro

Ba da ba bada, ba ba bada Amda B7 C (AmMainB7 RifCf)

Verse

Am One timeB7 we wereC in passing C G Am I watchedB7 the futCure swirling 'AmrounB7d, aCround my head G Am TB7his is how it Cwent (Main Riff)

Chorus

EmYou and I, both aB7lone sat waiEmting in lines too long Amto compreD7hend EmWe both sat waiB7ting in lines for Emthe rest of our Amlives D7 G Ooh B7Ooh, Ooh EmOoh, Cforever and Gafter we went Cmon forever Am One timeB7 you wereC inhaling C G Am I sawB7 the smoke wenCt whirling ‘AmrounB7d your Cheedless head Am You B7bored me to my Cdeath EmYou and I both B7alone sat waiEmting in lines too long Amto compreD7hend EmWe both sat waiB7ting in lines for Emthe rest of our Amlives D7 G Ooh B7Ooh, Ooh EmOoh, Cforever and Gafter we went Cmon forever

Gui

Am I prefer to sleep Emalone I prefer to stay right Chere, don't come Emsearching Am I prefer the windows Emup I prefer the fresher Cair And for the Emrecord
   e -----------------------------------------------------------------------|
   b ---5---------5----------3--0--------3--0-----------5--------5----------|
   G -5---2-4--5-----5-2-4--------0-----------2-0-----5---2-4-5----5-2-4----|
   D --------------------------------2------------2-------------------------|
   A -----------------------------------------------------------------------|
   E -----------------------------------------------------------------------|
   e -------------------------------------------0---------------------------|
   b ------0-------0-------0--------------------0---------------------------|
 I G ----0-------0-------0----------------------0---------------------------|
   D -2-------4-------5-----------7---5---4-----2---------------------------|
   A -------------------------------------------2---------------------------|
   E -------------------------------------------0---------------------------|
   e --------------------------------10-------------------------------------|
   b -7--5--7/8--7--8-10--8-10-10b12----12r10---7b8r7-----------------------|
II G -----------------------------------------------------------------------|
   D -----------------------------------------------------------------------|
   A -----------------------------------------------------------------------|
   E -----------------------------------------------------------------------|

Em B7 Em B7

G Ooh B7Ooh, Ooh EmOoh, Cforever and G Ooh B7Ooh, Ooh EmOoh, Cforever and Gafter we went Cmon forever and Gafter we went Cmon forever and Gafter we went Cmon forever Em Key: B-bend r-release /-slide up The End!

All Content on this page is the property of the copyright owner of the original composition.