The Cooper Temple Clause - Waiting Game Chords

Main Riff
Main Riff
Bridge Riff
 
No chord
    
Standard guitar tuning:
E
A
D
G
B
E
No capo

Verse

"From the littlest things....
e|-----------------------------------------------------|
B|-----------------------------------------------------|
G|------------------------------------9-9-9-9-9-9-9-9--|
D|--6-6-6-6-6-6-6-6--8-8-8-8-8-8-8-8--9-9-9-9-9-9-9-9--|
A|--6-6-6-6-6-6-6-6--8-8-8-8-8-8-8-8--7-7-7-7-7-7-7-7--|
E|--4-4-4-4-4-4-4-4--6-6-6-6-6-6-6-6-------------------|
e|---------------------------------------------------------------|
B|---------------------------------------------------------------|
G|--9-9-9-9-9-9-9-9-----8-8-8-8-8-8-8-8--11-11-11-11-11-11-11-11-|
D|--9-9-9-9-9-9-9-9-----8-8-8-8-8-8-8-8--11-11-11-11-11-11-11-11-|
A|--7-7-7-7-7-7-7-7-----6-6-6-6-6-6-6-6-- 9- 9- 9- 9- 9- 9- 9- 9-|
E|---------------------------------------------------------------|
e|---------------------|
B|---------------------|
G|--9-9-9-9-9-9-9-9----|
D|--9-9-9-9-9-9-9-9----|
A|--7-7-7-7-7-7-7-7----|
E|---------------------|

Chorus

"But is this the time.......              is this the place
e|---------------------------------------------------------|
B|---------------------------------------------------------|
G|---------------4-4-4-4-4-4-4-4-4-4-4-4-4-4-4-4-----------|
D|---------------4-4-4-4-4-4-4-4-4-4-4-4-4-4-4-4---4-4-4-4-|
A|---------------2-2-2-2-2-2-2-2-2-2-2-2-2-2-2-2---4-4-4-4-|
E|-------------------------------------------------2-2-2-2-|
             and is this the   end                is all i can
e|-------------------------------------------------------------|
B|-------------------------------------------------------------|
G|-------------------------------------------------------------|
D|---4-4-4-4-4-4-4-4-4-4-4-4---6-6-6-6-6-6-6-6-6-6-6-6-6-6-6-6-|
A|---4-4-4-4-4-4-4-4-4-4-4-4---6-6-6-6-6-6-6-6-6-6-6-6-6-6-6-6-|
E|---2-2-2-2-2-2-2-2-2-2-2-2---4-4-4-4-4-4-4-4-4-4-4-4-4-4-4-4-|
     say                  i promise i  never
e|-----------------------------------------------------|
B|-----------------------------------------------------|
G|-------------------------------------4-4-4-4-4-4-4-4-|
D|---2-2-2-2-2-2-2-2-2-2-2-2-2-2-2-2---4-4-4-4-4-4-4-4-|
A|---2-2-2-2-2-2-2-2-2-2-2-2-2-2-2-2---2-2-2-2-2-2-2-2-|
E|---0-0-0-0-0-0-0-0-0-0-0-0-0-0-0-0-------------------|
    meant to turn you away                 why did you
e|----------------------------------------------------|
B|----------------------------------------------------|
G|--4-4-4-4-4-4-4-4-----------------------------------|
D|--4-4-4-4-4-4-4-4---4-4-4-4-4-4-4-4-4-4-4-4-4-4-4-4-|
A|--2-2-2-2-2-2-2-2---4-4-4-4-4-4-4-4-4-4-4-4-4-4-4-4-|
E|--------------------2-2-2-2-2-2-2-2-2-2-2-2-2-2-2-2-|
     trust me with your.......
e|-----------------------------------------------------|
B|-----------------------------------------------------|
G|-----------------------------------------------------|
D|---2-2-2-2-2-2-2-2-2-2-2-2-2-2-2-2-------------------|
A|---2-2-2-2-2-2-2-2-2-2-2-2-2-2-2-2-------------------|
E|---0-0-0-0-0-0-0-0-0-0-0-0-0-0-0-0-------------------|
"heart... back to verse etc...

All Content on this page is the property of the copyright owner of the original composition.