Copeland - No One Really Wins This Time Text Guitar Tab

Learn song with the online tabulature player
This is the first song off the new Copeland CD "In Motion". The CD is incredible. I
finished the tab to the solo of this song, I'm trying to work the rest of it out.

e|-------------------------------------------------------------------------|
B|-------------------------------------------------------------------------|
G|---------4-2-0-----------------------------------------------------------|
D|---------------4-4-2-0-2-2-4-----4-2-0-2-2-4-2-0-------------------------|
A|-0-2-4-5---------------------2-0-----------------------------------------|
E|-------------------------------------------------------------------------|

e|-------------------------------------------------------------------------|
B|-----------------7-5-3-5-5-7-----7-5-3-5-5-------------------------------|
G|---------4-2-9-7-------------4-2-----------------------------------------|
D|-------------------------------------------------------------------------|
A|-0-2-4-5-----------------------------------------------------------------|
E|-------------------------------------------------------------------------|