Copeland - Pin Your Wings Chords

 
No chord
    
Standard guitar tuning:
E
A
D
G
B
E
No capo
INTRO / MAIN RIFF
e------2----2------3----3------2----2------3----3------x--x--x--x----------|
a------x----x------x----x------x----x------x----x------x--x--x--x----------|
d------0----0------0----0------0----0------0----0------x--x--x--x----------|
g------2----2------4----4------2----2------4----4------x--x--x--x----------|
b------x----x------x----x------x----x------x----x------x--x--x--x----------|
e------x----x------x----x------x----x------x----x------x--x--x--x----------|
^ 2X . . . then begin verse

Verse

       Hey amanda
e------2----2------3----3------2----2------3----3------x--x--x--x----------|
a------x----x------x----x------x----x------x----x------x--x--x--x----------|
d------0----0------0----0------0----0------0----0------x--x--x--x----------|
g------2----2------4----4------2----2------4----4------x--x--x--x----------|
b------x----x------x----x------x----x------x----x------x--x--x--x----------|
e------x----x------x----x------x----x------x----x------x--x--x--x----------|
       this time
e------2----2------3----3------2----2------3----3------x--x--x--x----------|
a------x----x------x----x------x----x------x----x------x--x--x--x----------|
d------0----0------0----0------0----0------0----0------x--x--x--x----------|
g------2----2------4----4------2----2------4----4------x--x--x--x----------|
b------x----x------x----x------x----x------x----x------x--x--x--x----------|
e------x----x------x----x------x----x------x----x------x--x--x--x----------|
       They say your pretty
e------3----3------2----2------3----3------2----2------x--x--x--x----------|
a------x----x------x----x------x----x------x----x------x--x--x--x----------|
d------0----0------0----0------0----0------0----0------x--x--x--x----------|
g------4----4------2----2------4----4------2----2------x--x--x--x----------|
b------x----x------x----x------x----x------x----x------x--x--x--x----------|
e------x----x------x----x------x----x------x----x------x--x--x--x----------|
e------2----2------3----3------2----2------3----3------x--x--x--x----------|
a------x----x------x----x------x----x------x----x------x--x--x--x----------|
d------0----0------0----0------0----0------0----0------x--x--x--x----------|
g------2----2------4----4------2----2------4----4------x--x--x--x----------|
b------x----x------x----x------x----x------x----x------x--x--x--x----------|
e------x----x------x----x------x----x------x----x------x--x--x--x----------|
repeat these two riffs for hey Amanda why you starin at telephone / do you feel like it off

Chorus

       pin your wings down
e------5----5------7----7------2----2------3----3--------------------------|
a------x----x------x----x------x----x------x----x--------------------------|
d------0----0------0----0------0----0------0----0--------------------------|
g------6----6------7----7------2----2------4----4--------------------------|
b------x----x------x----x------x----x------x----x--------------------------|
e------x----x------x----x------x----x------x----x--------------------------|
       if it's over now
e------3----3------5----5------7----7------2----2--------------------------|
a------x----x------x----x------x----x------x----x--------------------------|
d------0----0------0----0------0----0------0----0--------------------------|
g------4----4------6----6------7----7------3----3--------------------------|
b------x----x------x----x------x----x------x----x--------------------------|
e------x----x------x----x------x----x------x----x--------------------------|
       pin your wings down
e------5----5------7----7------2----2------3----3--------------------------|
a------x----x------x----x------x----x------x----x--------------------------|
d------0----0------0----0------0----0------0----0--------------------------|
g------6----6------7----7------2----2------4----4--------------------------|
b------x----x------x----x------x----x------x----x--------------------------|
e------x----x------x----x------x----x------x----x--------------------------|
       and just take a chance
e------5----5------7----7------2----2------3----3--------------------------|
a------x----x------x----x------x----x------x----x--------------------------|
d------0----0------0----0------0----0------0----0--------------------------|
g------6----6------7----7------2----2------4----4--------------------------|
b------x----x------x----x------x----x------x----x--------------------------|
e------x----x------x----x------x----x------x----x--------------------------|
2nd verse same as first not sure of bridge . . . uses same shapes though i'll figure it out soon and tab it asap if you want to try and figure it out I think it uses same shapes as verses and chorus . .. and it's def in the key of D

All Content on this page is the property of the copyright owner of the original composition.