Coral - Put The Sun Back Text Guitar Tab

Learn song with the online tabulature player
Intro:
e-------------------|
B-------7p5---------|
G-----4-----6--6--8-|
D-4s6---------7--9--|
A-------------------|
E-------------------|

E             B
I caught you crying
C#m       A                E
Trying to hide your tears away
            B
And all the while
C#m     A                  E
I never knew you felt this way
                        B
I’ve loved you from the start
C#m          A             E
How could we let this come apart
             B
We’ve got to put
    A               E
The sun back in our hearts

A-------4-7-4---|
E-0-4-7-------7-|

E                B
Through the alleyways
C#m     A              E
The avenues and dreary days
                B
Your schoolyard eyes
C#m  A            E
Hypnotizing every time
                    B
When we kiss in the dark
C#m     A           E
Emotion tearing us apart
             B
We’ve got to put
    A               E
The sun back in our hearts

A-------4-7-4---|
E-0-4-7-------7-|

A
Down the cinder path
   Am
And through the hedge
C#m
Climbing up to the window ledge
F#
Throwing lockets to make a scene
B
I can’t explain, you know what I mean

e---------------------------------------------------------------------------|
B---------------------------------------------------------------------------|
G-------------------------------------------------------9-11s13p11----------|
D------------------4h6-2s4h6p4s2--------6-9s11p9--9-9-11----------13-11-----|
A-------4-7----4s7----4---------0---5s7---------11--------------------------|
E-0-4-7-----7-7------------------4-0----------------------------------------|

e---------------------------------------9-9-9--9-12-9-----|
B----------------------------7p5-5-7-5s9-9---12------12-9-|
G------11------8-6-6--------6---6-------------------------|
D-11h13--13-11-9-7-7-6-6-6-9------------------------------|
A---------------------7-----------------------------------|
E---------------------------------------------------------|

A-------4-7-4---|
E-0-4-7-------7-|

E            B
I caught you crying
C#m       A                E
Trying to hide your tears away
                  B
But your crippled smile
C#m         A              E
Will always give the game away
                B
Are we falling apart
C#m         A              E
Are we just walking in the park
            B
We’ve got to put
    A               E
The sun back in our hearts

A-------4-7-4---|
E-0-4-7-------7-|

continue chords for instrumental.