Coral - Remember Me Text Guitar Tab

Learn song with the online tabulature player
e|---------------------------------------------------------------|
B|----------------------------------15b12---10~-12~--8s7 v~~~~~~-|
G|----7b-----------9h12 9h12 9h12--------------------------------|
D|--------9h10b--------------------------------------------------|
A|-7-------------------------------------------------------------|
E|---------------------------------------------------------------|


e|-------------------------------------------------------------------------------|
B|-------------------------------------8b10b10b10b10r----------------------------|
G|---------------------7s9-7------------------------------9---7---7--------------|
D|-------------7s9-7-----------9~~~~------------------------------9----7----9~~~~|
A|----567------------------------------------------------------------------------|
E|-7-----------------------------------------------------------------------------|