Craig Morgan - I Want Us Back Chords

 
No chord
    
Standard guitar tuning:
E
A
D
G
B
E
Capo on 3 fret
E----------------------------------------------------|
B---0h1--3p1--0---0------0h1--3p1--0---0-------------|
G---------------0--------------------0---------------|
D----------------------------------------------------|
A----------------------------------------------------|
E----------------------------------------------------|
C Lately, I've been lonely C/B Lord knows, Am I don't like that feelin' Any F more than you like feelin' lonely, Gsus too G I don't C know which one's to blame For C/B almost Am puttin' out our flame But, for F me, it's not the thing for us to Gsus do G The F way it was The G way were were Baby, C you and me is C/B where it was Am at And I Dm want I G want - us C back
E--------------------------|
B---0h1--3p1--0---1------0-|
G---------------0----------|
D--------------------------|
A--------------------------|
E--------------------------|
C Girl, we've come to far For C/B us to Am give up on tomorrow When we F shared so many good-time-yester Gsus day's G If I C know you like I think I C/B do I Am know that you don't want to lose The F me and you, we're trying to Gsus save G The F way it was The G way we were Baby, C you and me is C/B where it was Am at And I Dm want I G want - us back C I wanna feel your love all Em over me C Wrapped up in us - is where I Em want to be I F want I G want C I wanna feel your love all Em over me C Wrapped up in us - is where I Em want to be I F want I G want Us C back C Lately, I've been lonely C/B Lord knows, Am I don't like that feelin' Any F more than you like feelin' lonely, C too Repeat Intro and fade.

All Content on this page is the property of the copyright owner of the original composition.