Crash Kings - You Got Me Text Guitar Tab

Learn song with the online tabulature player
Tabbed by ~O.S.

You Got Me – Crash Kings

any questions, comments, or fixes, email me: akatsukit16@gmail.com

G|-------------3--------------2---------------0----------------------------------|
D|-----------------0--------------0---------------0--------------3---0-----------|
A|-------------------------------------------------------------------------------|
E|-3--3------------- 3--3-----------3--3------------3--3-------------------------|

G|-------------3--------------2---------------0----------------------------------|
D|-----------------0--------------0---------------0--------------3---0-----------|
A|-------------------------------------------------------------------------------|
E|-3--3------------- 3--3-----------3--3------------3--3-------------------------|

G|-------------3--------------2---------------0----------------------------------|
D|-----------------0--------------0---------------0--------------3---0-----------|
A|-------------------------------------------------------------------------------|
E|-3--3------------- 3--3-----------3--3------------3--3-------------------------|

G|-------------------------------------------------------------------------------|
D|-1-1-1-1-1-1-1-1-----------------1-1-1-1-1-1-1-1-------------------------------|
A|-----------------3-3-3-3-3-3-3-3-----------------3-3-3-3-3-3-3-3---------------|
E|-------------------------------------------------------------------------------|

G|-------------3--------------2---------------0----------------------------------|
D|-----------------0--------------0---------------0--------------3---0-----------|
A|-------------------------------------------------------------------------------|
E|-3--3------------- 3--3-----------3--3------------3--3-------------------------|

G|-------------3--------------2---------------0----------------------------------|
D|-----------------0--------------0---------------0--------------3---0-----------|
A|-------------------------------------------------------------------------------|
E|-3--3------------- 3--3-----------3--3------------3--3-------------------------|

G|-------------3--------------2---------------0----------------------------------|
D|-----------------0--------------0---------------0--------------3---0-----------|
A|-------------------------------------------------------------------------------|
E|-3--3------------- 3--3-----------3--3------------3--3-------------------------|

G|-------------------------------------------------------------------------------|
D|-1-1-1-1-1-1-1-1-----------------1-1-1-1-1-1-1-1-------------------------------|
A|-----------------3-3-3-3-3-3-3-3-----------------3-3-3-3-3-3-3-3---------------|
E|-------------------------------------------------------------------------------|

G|-------------------------------------------------------------------------------|
D|-------------9--9-9-9-9/3---------------9--9-9-9-9/3---------------------------|
A|-------------------------------------------------------------------------------|
E|-3--3--3-3/6----------------3--3--3-3/6----------------------------------------|

G|-------------------------------------------------------------------------------|
D|-1-1-1-1-1-1-1-1-----------------1-1-1-1-1-1-1-1-----------------3-5-----------|
A|-----------------3-3-3-3-3-3-3-3-----------------3-3-3-3-3-3-3-3---------------|
E|-------------------------------------------------------------------------------|

G|-------------------------------------------------------------------------------|
D|-----------------1-1-1-1-1-1-1-------------------0-0-0-0-0-0-0-----------------|
A|-1-1-1-1-1-1-1-----------------------------------------------------------------|
E|---------------------------------3-3-3-3-3-3-3---------------------------------|

G|-------------------------------------------------------------------------------|
D|-----------------1-1-1-1-1-1-1-------------------0-----------------------------|
A|-1-1-1-1-1-1-1-----------------------------------------------------------------|
E|---------------------------------3-3-3-3-3-3-3---------------------------------|

G|-------------3--------------2---------------0----------------------------------|
D|-----------------0--------------0---------------0--------------3---0-----------|
A|-------------------------------------------------------------------------------|
E|-3--3------------- 3--3-----------3--3------------3--3-------------------------|

G|-------------3--------------2---------------0----------------------------------|
D|-----------------0--------------0---------------0--------------3---0-----------|
A|-------------------------------------------------------------------------------|
E|-3--3------------- 3--3-----------3--3------------3--3-------------------------|

G|-------------3--------------2---------------0----------------------------------|
D|-----------------0--------------0---------------0--------------3---0-----------|
A|-------------------------------------------------------------------------------|
E|-3--3------------- 3--3-----------3--3------------3--3-------------------------|

G|-------------------------------------------------------------------------------|
D|-1-1-1-1-1-1-1-1-----------------1-1-1-1-1-1-1-1-------------------------------|
A|-----------------3-3-3-3-3-3-3-3-----------------3-3-3-3-3-3-3-3---------------|
E|-------------------------------------------------------------------------------|

G|-------------------------------------------------------------------------------|
D|-------------9--9-9-9-9/3---------------9--9-9-9-9/3---------------------------|
A|-------------------------------------------------------------------------------|
E|-3--3--3-3/6----------------3--3--3-3/6----------------------------------------|

G|-------------------------------------------------------------------------------|
D|-1-1-1-1-1-1-1-1-----------------1-1-1-1-1-1-1-1-------------------------------|
A|-----------------3-3-3-3-3-3-3-3-----------------3-3-3-3-3-3-3-3---------------|
E|-------------------------------------------------------------------------------|

G|-------------------------------------------------------------------------------|
D|-----------------1-1-1-1-1-1-1-------------------0-0-0-0-0-0-0-----------------|
A|-1-1-1-1-1-1-1-----------------------------------------------------------------|
E|---------------------------------3-3-3-3-3-3-3---------------------------------|

G|-------------------------------------------------------------------------------|
D|-----------------1-1-1-1-1-1-1-------------------0-0-0-0-0-0-0-----------------|
A|-1-1-1-1-1-1-1-----------------------------------------------------------------|
E|---------------------------------3-3-3-3-3-3-3---------------------------------|

G|-------------------------------------------------------------------------------|
D|-----------------1-1-1-1-1-1-1-------------------0-0-0-0-0-0-0-----------------|
A|-1-1-1-1-1-1-1-----------------------------------------------------------------|
E|---------------------------------3-3-3-3-3-3-3---------------------------------|

G|-------------------------------------------------------------------------------|
D|-----------------1-1-1-1-1-1-1-------------------0-----------------------------|
A|-1-1-1-1-1-1-1-----------------------------------------------------------------|
E|---------------------------------3-3-3-3-3-3-3---------------------------------|

G|-------------------------------------------------------------------------------|
D|-------------9--9-9-9-9/3---------------9--9-9-9-9/3---------------------------|
A|-------------------------------------------------------------------------------|
E|-3--3--3-3/6----------------3--3--3-3/6----------------------------------------|
(Depending on the song version, the endings differ. Just play this last riff and repeat 
the song ends)