Creeping Unclean - Bondage Pain Chords

 
No chord
    
Standard guitar tuning:
E
A
D
G
B
E
No capo
G:-0---9-0----99999------xxxxxx---------1-0-0-0--------
D:--1-1------------0---0-xxxxxx--------7--------1------
A:----------3---------2---------------5----------9-----
E:---------8---------3----------0-0-0--------------(11)
verse.. G:----0000----5-------7-11111-5-6-(10)-----------------
D:--------55---8-3--6----------------------------------
A:--2-----------0-1------------------------------------
E:-2-----------------------------------5-5-5-5-5-0-0-0-
chorus..
G:0-0-0-0-0-0-0-----------4-1-1-1-0000-----------0-0-0-
D:-------------------0-7-3------------xx-------1-0-1-0-
A:------------------1-------------------7-8-0-9--0-0-0-
E:--------------(14)-------------------------2---0-1-0-
outro...
G:---6------0----2--------1-7-4-2------------2-0-------
D:-----2---0---------------------7--------------1------
A:--------0-----8------------------4444444444----1-----
E:------------xx---0-0-0-0------------------------0----
bass under plenty of distortion....

All Content on this page is the property of the copyright owner of the original composition.