Cross Canadian Ragweed - On Your Own Chords

 
         
         
         
         
         
X
X
1
3
2
2 fr
         
         
         
         
         
X
4
3
1
2
1
5 fr
         
         
         
         
         
X
1
2
3
4
1
5 fr
         
         
         
         
         
X
1
4
4
4
X
7 fr
         
         
         
         
         
4
3
1
1
1
X
7 fr
         
         
         
         
         
3
2
1
1
1
4

10 fr
         
         
         
         
         
1
3
4
2
1
1
12 fr
         
         
         
         
         
X
X
1
3
4
3
5 fr
         
         
         
         
         
X
X
         
         
         
         
         
1
3
4
2
1
1
5 fr
         
         
         
         
         
X
4
3
1
2
1
3 fr
         
         
         
         
         
X
X
1
2
4
3
         
         
         
         
         
X
X
3
2
1
1
8 fr
         
         
         
         
         
X
1
3
3
3
1
10 fr
         
         
         
         
         
4
3
1
1
1
X

10 fr
         
         
         
         
         
3
2
1
1
1
4
         
         
         
         
         
3
2
4
3 fr
         
         
         
         
         
1
3
4
2
1
1
         
         
         
         
         
2
1
3
4
3 fr
         
         
         
         
         
X
X
3
2
1
1
5 fr
         
         
         
         
         
X
X
1
3
4
3
7 fr
         
         
         
         
         
X
4
3
1
2
1

10 fr
         
         
         
         
         
X
1
2
3
4
X
10 fr
         
         
         
         
         
X
1
3
3
3
1
12 fr
         
         
         
         
         
3
2
1
1
1
4
         
         
         
         
         
X
3
2
1
3 fr
         
         
         
         
         
X
1
2
3
4
1
8 fr
         
         
         
         
         
1
3
4
2
1
1
3 fr
         
         
         
         
         
X
1
X
3
4
1
5 fr
         
         
         
         
         
3
2
1
1
1
4
10 fr
         
         
         
         
         
X
X
1
3
4
3

12 fr
         
         
         
         
         
X
4
3
1
2
1
3 fr
         
         
         
         
         
X

B

variations
         
         
         
         
         
X
1
2
3
4
1
6 fr
         
         
         
         
         
1
3
4
2
1
1
         
         
         
         
         
X
1
4
4
4
X
         
         
         
         
         
X
1
X
3
4
1
3 fr
         
         
         
         
         
3
2
1
1
1
4
8 fr
         
         
         
         
         
X
X
1
3
4
3

10 fr
         
         
         
         
         
X
4
3
1
2
1
No chord
    
Standard guitar tuning:
E
A
D
G
B
E
No capo

Intro

D F G D x3

DIf I knew where I was going CI'd might already be there GBut I don't know where I've bDeen... Every town sCeem to look the same...anGother year has came and wDent. Runnin' from yesterday, lCookin' for tomorrow, GLet today just pass me Dby. Searchin' for the answers, oCpen for suggestions... GStill the questions cloud my Dmind... BCause every wCinter it gets cDolder, Band every suCmmer seems so lDong, Band every rCoad it goes on foDrever

B C D B C D 4x

when you're out there on your own. DI met a driftin' woman. CShe was lookin' for the answers Gand all she had was alDibis. Well that driftin' woman, CI could never trust her... GShe had a pocket full of lDies. So one night I left her Cin total darkness GIn a hotel room in TDulsa. Hey, driftin' woman, wChere ever you're driftin' now, GI hope you find what you're searchin' fDor... BCause every wCinter it gets cDolder, Band every suCmmer seems so lDong, Band every rCoad it goes on foDrever

B C D B C D 4x

when you're out there on your own. DI may not find the end Cto this road I'm takin'. GI might not find my pot of gDold. But there's always another day, thCere's always another bend, GAnother story to be tDold... BCause every wCinter it gets cDolder, Band every suCmmer seems so lDong, Band every rCoad it goes on foDrever Bwhen you're oCut there on your oDwn. BCause every wCinter it gets cDolder (it gets colder), Band every suCmmer seems so lDong (it seems way too long), Band every rCoad it goes on foDrever (it goes on forever)
B           C                 D    B  C  D  4x
when you're out there on your own.
G----14b-11-11-12-11-12-11-12/14-12-12\11-11-11\9----------------G
D----------------------------------------------------------------D
A----------------------------------------------------------------A
E----------------------------------------------------------------E
e-----------------------------------------------------------------e
B-10-7b-----------------------------------------------------------B
G-------7-9-----9b-7----------------------------------------------G
D-----------7-----------------------------------------------------D
A-----------------------------------------------------------------A
E-----------------------------------------------------------------E
e-----------------------------------------------------------------e
B-15--------------------------------------------------------------B
G----14b-11-11-12-11-12-11-12/14-12-12\11-11-11\9-----------------G
D-----------------------------------------------------------------D
A-----------------------------------------------------------------A
E-----------------------------------------------------------------E
e------------------------------------------------------------------e
B------------------------------------------------------------------B
G----------7------9b-7---7-9b-9b-7~~~------------------------------G
D------7-9---9-9-------9-------------------------------------------D
A-7/9--------------------------------------------------------------A
E------------------------------------------------------------------E
The thing after the chorus
e----------------------------------------------------------------e
B----------------------------------------------------------------B
G-----------------12-14-15-14------------------------------------G
D--------12-14-15------------------------------------------------D
A--13-15---------------------------------------------------------A
E----------------------------------------------------------------E
e-----------------------------------------------------------------e
B-----------------------------------------------------------------B
G-----------------------------------------------------------------G
D--------12-14-15-14-12-------------------------------------------D
A--13-15----------------15-12-------------------------------------A
E-----------------------------------------------------------------E
e-----------------------------------------------------------------e
B-----------------------------------------------------------------B
G-----------------12-14-15-14-------------------------------------G
D--------12-14-15-------------------------------------------------D
A--13-15----------------------------------------------------------A
E-----------------------------------------------------------------E
Solo at the end
e----------------------------------------------e
B----------------------------------------------B
G------------10----10-12b-10----10-12b-12b-10--G
D------10-12----12-----------12----------------D
A--/12-----------------------------------------A
E----------------------------------------------E
e----------------------------------------10-13-10------e
B-------------------------------------------------13b--B
G--------------------10b----------10-12b---------------G
D--10----------10-12-----12-10-12----------------------D
A-----12-10-12-----------------------------------------A
E------------------------------------------------------E
e----------------------------------------------e
B----------------------------------------------B
G--10-12-10---------------------10-------------G
D-----------12---12-10----10-12----12----------D
A----------------------12----------------------A
E----------------------------------------------E
e----------------------------------------------e
B----------------------------------------------B
G------------10----------------10--------------G
D------10-12----12-------10-12----12-----------D
A--/12---------------/12-----------------------A
E----------------------------------------------E
e----------------------------------------------e
B----------------------------------------------B
G------------12-12-12-12-12-12-12b14-----------G
D------10-12-----------------------------------D
A--/12-----------------------------------------A
E----------------------------------------------E
e--------13-15b-15p13----13----------------------------e
B--13-15--------------15----15p13----13-15-13----15----B
G---------------------------------14----------14-------G
D------------------------------------------------------D
A------------------------------------------------------A
E------------------------------------------------------E

All Content on this page is the property of the copyright owner of the original composition.