Crossfade - Unknown Text Guitar Tab

Learn song with the online tabulature player
The Unknown - Crossfade
-------------------------------------------------------------------------------
Tabbed by:BBsocold25
Email:Titanfan418@aol.com

Tuning:EADGBE
(strum) Repeat a couple times
E|------------|-----------------------------------------------|--------------|
B|------------|-----------------------------------------------|---5^-5-5-5-5-|
G|-0----------|----0--------0--------0------------------------|-7------------|
D|-5--2--2--4-|-------5--------5-----------4--------4---------|--------------|
A|-3--3--2--2-|-3--------3--------3-----------2--------2-----2|--------------|
E|-3--0--0--0-|-------------------------0--------0--------0---|--------------|

E|-------------------------------------------------------------------|
B|-(5)---5^---7^---5^--5h3---5^--5-5-5-5-(5)---5^--7^--5^--5-5-5h3---|
G|-----7-------------------4-----------------4---------------------4-|
D|-------------------------------------------------------------------|
A|-------------------------------------------------------------------|
E|-------------------------------------------------------------------|

It's short but beleive me it's the whole song.E-Mail me about this tab just to make sure im right.

===============================================================================