Crystal Fighters - At Home Text Guitar Tab

Learn the song with the online tablature player
                             At Home - Crystal Fighters

Intro
Riff then 4xB)
Verse Chords
Bx2, F#x2, Bx2, F#x2, Ex2, F#x2 then

B  F#  E  B

Chorus Chords
E   B

Riff

e|----------------------------------------------------------------------------|
B|----------------------------------------------------------------------------|
G|-----------------------------8---------------8----------8---11-----8--------|
D|--------9------9--11--9--11----------9--11-------9--11------------------11--|
A|-9--11-----11--------------------11-----------------------------------------|
E|----------------------------------------------------------------------------|

e|----------------------------------------------------------------------------|
B|-12--9------9---------------------------------------------------------------|
G|--------11-----11--8--11--8------8--11-----8--------------------8-----------|
D|-----------------------------11---------9---------9-------9--11----11-------|
A|----------------------------------------------11-------9--------------------|
E|----------------------------------------------------------------------------|

Nice to use barr chord on 12(high e basically), then open E in chorus. Listen out for
it. I'll post the lyrics soon!
Let me know what you think! Cheers,