Cueshe - All I Want Text Guitar Tab

Learn song with the online tabulature player
title: all i want
artist: cueshe
tabbed by: dennis villaflor
email: darkangel_awp029@yahoo.com
       916-578-5995
standard tuning: h-hammer, s-slide, \-slide back, r-release and let it ring

note: you can also use Am instead of using G/Bb if you prefer,
      it aslo sounds good.
    :strumming pattern not shown.

intro/verse:

   C  G  G/Bb  G
|--3--3---3----3----------|
|--3--3---3----3----------|
|--0--0---0----0----------|
|--2--0---2----0----------|
|--3--2---2----2----------|
|--x--3---x----3----------|

pre-chorus:

   Em  F   Em  Am
|--0---1---0----0---------|
|--0---1---0----1---------|
|--0---2---0----2---------|
|--2---3---2----2---------|
|--2---3---2----x---------|
|--x---1---x----x---------|

chorus:
   E  B  C  G
|--0--2--3--3-------------|
|--0--4--5--3-------------|
|--1--4--5--4-------------|
|--2--4--5--5-------------|
|--2--2--3--5-------------|
|--x--2--3--3-------------|

adlib: you can use intro/verse chords for the adlib.

|-------------------------------------------|
|------------------5-5\4-3-3s5-7-5----------|
|----0h2-2h3-3s5-5--------------------------|
|-------------------------------------------|
|--3----------------------------------------|
|-------------------------------------------|

|-------------------------------------------|
|--5s6\5-5-5--------------------------------|
|------------5-5----------------------------|
|----------------7-7-5-5-3------------------|
|-------------------------------------------|
|-------------------------------------------|

|--------------3-----3----------------------|
|----------3-----3-----3--------------------|
|------4-----4-----4-------4----------------|
|----5---5---------------5------------------|
|--5----------------------------------------|
|-------------------------------------------|

|-------------------------------------------|
|---------------(5s6\5-5)rep 6x fast--------|
|----0h2-2h3-3s5----------------------------|
|-------------------------------------------|
|--3----------------------------------------|
|-------------------------------------------|

|-------------------------------------------------|
|--5s6\5-5-5r-------------------------------------|
|-----------------5-----4-----4---0h2-2h3-3r-2----|
|---------------7-----6-----5---------------------|
|-------------7-----6-----5-----3-----------------|
|-------------------------------------------------|

song sequence:

intro: C-G-G/Bb-G

verse 1:

C                G
how, how could i be so blind
         G/Bb                              G
i didn't see you standing staring right at me
C                  G
how, how could you leave me like that
         G/Bb
i wasn't doin' anything
                         G
to make you leave me for good

pre-chorus:

    Em                    F
and all i ever wanted was love
    Em                  Am
and all i ever wanted was to be loved
    Em                    F
and all i ever wanted was love
    Em                  Am
and all i ever wanted was you

chorus:
         E
to be my life
         B
to be my everything
           C
to be with you
                 G
is all i want to do

verse 2:
C                G
how, i wished it never ended
                  G/Bb                         G
'cause what we've had was so strong and beautiful
C                  G
how, how could you treated me so bad
            G/Bb                             G
you didn't even leave a note with a sorrow goodbye

pre-cho:
cho:
adlib part:
pre-cho
cho:
kahlas!
peace out!!

[sana mapagtyagaan nyo dis tab especially ung adlib part, if anyone out there who do the 
part of this song very well pls send me a tab to darkangel_awp029@yahoo.com] tnx for 
my piece..GODspeed! ROCK ON!!