Cueshe - I Wont Let You Down Text Guitar Tab

Learn song with the online tabulature player
title: i won't let you down
artist: cueshe
tabbed by: dennis villaflor
email: darkangel_awp029@yahoo.com
       916-578-5995
standard tuning: s-slide    \-slide back


intro:

|-----------------------------------------------|
|-6-6-6----------------------------------3------|
|-------5-5-5--------------------------5--------|
|-------------5-5-5------------------5----------|
|-------------------3-3-3--3s4\3---5------------|
|-----------------------------------------------|

verse 1:
C                Em
I know i've made mistakes
                 C
I know i've let you down
                        Em
This time i'm here with you
                       Dm
Let's give it one more try
                      G
'cause God knows i've changed

fill in 1:

|-----------------------------------------------|
|-6-6-6---------------3-------------------------|
|-------5-5-5-------5---------------------------|
|-----------------5-----------------------------|
|---------------5-------------------------------|
|-----------------------------------------------|

verse 2: rep verse chord pattern

And now that you're back
i've been waiting for this chance
a chance to win you back
to win you back somehow
this time it will be right


chorus: rep 2x

         A
Now that you're here
E         F#m            D
Nothin's gonna break us down
          A      E       D
This time i wont let you down

fill in 2:

|-------------------------------------------------------|
|-6-6-6-------6s7-7-7-------6-6-7(11x)-7s9-10--------3--|
|-------5-5-5---------5-5-5------------------------5----|
|------------------------------------------------5------|
|----------------------------------------------5--------|
|-------------------------------------------------------|

verse 3: verse chord pattern

Now everything has changed
Everythin's seemed praised
Everythin's so right
Everythin's just perfect
This time it will be right

repeat chorus:

refrain:
A                        E
I've seen the way you've hurt
F#m                D
Somehow i feel the pain
A                     E
that's why i'm coming back
           F#m
to take it all away
    D
and i will lift you up


Godspeed..