Cure - Going Nowhere Text Guitar Tab

Learn song with the online tabulature player
Band: the cure
Song: going nowhere
album: the cure

E---------------------------|
B---------------------------|
G-----------------------4---|
D---9-9-7-7-5-5-4-4-2-----5-|
A---------------------------|
E---------------------------|

E--------------------------|
B--------------------------|
G-----------7-7-4----------|
D---9-9-7-7-------5--------|
A--------------------------|
E--------------------------|
those are the only 2 lead parts i think they just repeat
tabbed the day after the album was released

Edward White
sacrificialrequiem@hotmail.com