Curse One - Sa Gitna Ng Ulan Text Guitar Tab

Learn song with the online tabulature player
C       G                  Am            F       G 
   |----3--------------------------------------------1------3-------|
   |------1-3--------3/5-3-1h3-1--------1-3-1--------1------3-------|
   |----------------------------------2--------------2------4-------|
   |---------------0----------------2----------------3------5-------|
   |--3----------2----------------0---------------3-------5---------|
   |-----------3--------------------------------1-------3-----------|
   
       C       G                  Am            F       G
   |----3--------------------------------------------1------3-------|
   |------1-3--------3/5-3-1h3-1--------1-3-1--------1------3-------|
   |----------------------------------2--------------2------4-------|
   |---------------0----------------2----------------3------5-------|
   |--3----------2----------------0---------------3-------5---------|
   |-----------3--------------------------------1-------3-----------|
   

the whole song is like that .. XD ..