Daft Punk - Voyager Chords

 
No chord
    
Standard guitar tuning:
E
A
D
G
B
E
No capo
E 2|-------2|-------3|-------3|--------||
B 3|-------5|-------5|-------5|--------||
G 4|-------4|-------4|-------5|-------O||
D 2|-------2|-------5|-------5|-------O||
A -|-------4|-------3|-------3|--------||
E -|--------|--------|--------|--------||
"-" = 1/2 beat The last chord, CMaj, can be played this way too, but its not as rich sounding:
E |-------3|
B |-------5|
G |-------5|
D |-------0|
A |--------|
E |--------|

All Content on this page is the property of the copyright owner of the original composition.